  0
SECTION
  2
HEADER
  9
$ACADVER
  1
AC1015
  9
$ACADMAINTVER
 70
     6
  9
$DWGCODEPAGE
  3
ANSI_1254
  9
$INSBASE
 10
0.0
 20
0.0
 30
0.0
  9
$EXTMIN
 10
0.0
 20
0.0
 30
0.0
  9
$EXTMAX
 10
279.4
 20
215.9
 30
0.0
  9
$LIMMIN
 10
0.0
 20
0.0
  9
$LIMMAX
 10
279.4
 20
215.9
  9
$ORTHOMODE
 70
     0
  9
$REGENMODE
 70
     1
  9
$FILLMODE
 70
     1
  9
$QTEXTMODE
 70
     0
  9
$MIRRTEXT
 70
     1
  9
$LTSCALE
 40
1.0
  9
$ATTMODE
 70
     1
  9
$TEXTSIZE
 40
3.5
  9
$TRACEWID
 40
1.0
  9
$TEXTSTYLE
  7
Standard
  9
$CLAYER
  8
0
  9
$CELTYPE
  6
ByLayer
  9
$CECOLOR
 62
   256
  9
$CELTSCALE
 40
1.0
  9
$DISPSILH
 70
     0
  9
$DIMSCALE
 40
1.0
  9
$DIMASZ
 40
3.5
  9
$DIMEXO
 40
1.0
  9
$DIMDLI
 40
3.75
  9
$DIMRND
 40
0.0
  9
$DIMDLE
 40
0.0
  9
$DIMEXE
 40
1.0
  9
$DIMTP
 40
0.0
  9
$DIMTM
 40
0.0
  9
$DIMTXT
 40
3.5
  9
$DIMCEN
 40
2.5
  9
$DIMTSZ
 40
0.0
  9
$DIMTOL
 70
     0
  9
$DIMLIM
 70
     0
  9
$DIMTIH
 70
     1
  9
$DIMTOH
 70
     1
  9
$DIMSE1
 70
     0
  9
$DIMSE2
 70
     0
  9
$DIMTAD
 70
     1
  9
$DIMZIN
 70
     0
  9
$DIMBLK
  1

  9
$DIMASO
 70
     1
  9
$DIMSHO
 70
     1
  9
$DIMPOST
  1

  9
$DIMAPOST
  1

  9
$DIMALT
 70
     0
  9
$DIMALTD
 70
     3
  9
$DIMALTF
 40
0.0393700787
  9
$DIMLFAC
 40
1.0
  9
$DIMTOFL
 70
     1
  9
$DIMTVP
 40
0.0
  9
$DIMTIX
 70
     0
  9
$DIMSOXD
 70
     0
  9
$DIMSAH
 70
     0
  9
$DIMBLK1
  1

  9
$DIMBLK2
  1

  9
$DIMSTYLE
  2
ISO-25
  9
$DIMCLRD
 70
     0
  9
$DIMCLRE
 70
     0
  9
$DIMCLRT
 70
     0
  9
$DIMTFAC
 40
1.0
  9
$DIMGAP
 40
1.524
  9
$DIMJUST
 70
     0
  9
$DIMSD1
 70
     0
  9
$DIMSD2
 70
     0
  9
$DIMTOLJ
 70
     0
  9
$DIMTZIN
 70
     0
  9
$DIMALTZ
 70
     0
  9
$DIMALTTZ
 70
     0
  9
$DIMUPT
 70
     0
  9
$DIMDEC
 70
     2
  9
$DIMTDEC
 70
     2
  9
$DIMALTU
 70
     2
  9
$DIMALTTD
 70
     3
  9
$DIMTXSTY
  7
Standard
  9
$DIMAUNIT
 70
     0
  9
$DIMADEC
 70
     2
  9
$DIMALTRND
 40
0.0
  9
$DIMAZIN
 70
     0
  9
$DIMDSEP
 70
    44
  9
$DIMATFIT
 70
     3
  9
$DIMFRAC
 70
     0
  9
$DIMLDRBLK
  1

  9
$DIMLUNIT
 70
     2
  9
$DIMLWD
 70
    -2
  9
$DIMLWE
 70
    -2
  9
$DIMTMOVE
 70
     0
  9
$LUNITS
 70
     2
  9
$LUPREC
 70
     2
  9
$SKETCHINC
 40
1.0
  9
$FILLETRAD
 40
10.0
  9
$AUNITS
 70
     0
  9
$AUPREC
 70
     2
  9
$MENU
  1
.
  9
$ELEVATION
 40
0.0
  9
$PELEVATION
 40
0.0
  9
$THICKNESS
 40
0.0
  9
$LIMCHECK
 70
     0
  9
$CHAMFERA
 40
0.0
  9
$CHAMFERB
 40
0.0
  9
$CHAMFERC
 40
0.0
  9
$CHAMFERD
 40
0.0
  9
$SKPOLY
 70
     0
  9
$TDCREATE
 40
2460346.670771759
  9
$TDUCREATE
 40
2460346.545771759
  9
$TDUPDATE
 40
2460346.670771944
  9
$TDUUPDATE
 40
2460346.545771944
  9
$TDINDWG
 40
0.0000000116
  9
$TDUSRTIMER
 40
0.0000000116
  9
$USRTIMER
 70
     1
  9
$ANGBASE
 50
0.0
  9
$ANGDIR
 70
     0
  9
$PDMODE
 70
     0
  9
$PDSIZE
 40
-1.0
  9
$PLINEWID
 40
0.0
  9
$SPLFRAME
 70
     0
  9
$SPLINETYPE
 70
     6
  9
$SPLINESEGS
 70
     8
  9
$HANDSEED
  5
134
  9
$SURFTAB1
 70
     6
  9
$SURFTAB2
 70
     6
  9
$SURFTYPE
 70
     6
  9
$SURFU
 70
     6
  9
$SURFV
 70
     6
  9
$UCSBASE
  2

  9
$UCSNAME
  2

  9
$UCSORG
 10
0.0
 20
0.0
 30
0.0
  9
$UCSXDIR
 10
1.0
 20
0.0
 30
0.0
  9
$UCSYDIR
 10
0.0
 20
1.0
 30
0.0
  9
$UCSORTHOREF
  2

  9
$UCSORTHOVIEW
 70
     0
  9
$UCSORGTOP
 10
0.0
 20
0.0
 30
0.0
  9
$UCSORGBOTTOM
 10
0.0
 20
0.0
 30
0.0
  9
$UCSORGLEFT
 10
0.0
 20
0.0
 30
0.0
  9
$UCSORGRIGHT
 10
0.0
 20
0.0
 30
0.0
  9
$UCSORGFRONT
 10
0.0
 20
0.0
 30
0.0
  9
$UCSORGBACK
 10
0.0
 20
0.0
 30
0.0
  9
$PUCSBASE
  2

  9
$PUCSNAME
  2

  9
$PUCSORG
 10
0.0
 20
0.0
 30
0.0
  9
$PUCSXDIR
 10
1.0
 20
0.0
 30
0.0
  9
$PUCSYDIR
 10
0.0
 20
1.0
 30
0.0
  9
$PUCSORTHOREF
  2

  9
$PUCSORTHOVIEW
 70
     0
  9
$PUCSORGTOP
 10
0.0
 20
0.0
 30
0.0
  9
$PUCSORGBOTTOM
 10
0.0
 20
0.0
 30
0.0
  9
$PUCSORGLEFT
 10
0.0
 20
0.0
 30
0.0
  9
$PUCSORGRIGHT
 10
0.0
 20
0.0
 30
0.0
  9
$PUCSORGFRONT
 10
0.0
 20
0.0
 30
0.0
  9
$PUCSORGBACK
 10
0.0
 20
0.0
 30
0.0
  9
$USERI1
 70
     0
  9
$USERI2
 70
     0
  9
$USERI3
 70
     0
  9
$USERI4
 70
     0
  9
$USERI5
 70
     0
  9
$USERR1
 40
0.0
  9
$USERR2
 40
0.0
  9
$USERR3
 40
0.0
  9
$USERR4
 40
0.0
  9
$USERR5
 40
0.0
  9
$WORLDVIEW
 70
     1
  9
$SHADEDGE
 70
     3
  9
$SHADEDIF
 70
    70
  9
$TILEMODE
 70
     1
  9
$MAXACTVP
 70
    64
  9
$PINSBASE
 10
0.0
 20
0.0
 30
0.0
  9
$PLIMCHECK
 70
     0
  9
$PEXTMIN
 10
1.0000000000E+20
 20
1.0000000000E+20
 30
1.0000000000E+20
  9
$PEXTMAX
 10
-1.0000000000E+20
 20
-1.0000000000E+20
 30
-1.0000000000E+20
  9
$PLIMMIN
 10
0.0
 20
0.0
  9
$PLIMMAX
 10
420.0
 20
297.0
  9
$UNITMODE
 70
     0
  9
$VISRETAIN
 70
     1
  9
$PLINEGEN
 70
     0
  9
$PSLTSCALE
 70
     1
  9
$TREEDEPTH
 70
  3020
  9
$CMLSTYLE
  2
Standard
  9
$CMLJUST
 70
     0
  9
$CMLSCALE
 40
20.0
  9
$PROXYGRAPHICS
 70
     1
  9
$MEASUREMENT
 70
     1
  9
$CELWEIGHT
370
    -1
  9
$ENDCAPS
280
     0
  9
$JOINSTYLE
280
     0
  9
$LWDISPLAY
290
     1
  9
$INSUNITS
 70
     4
  9
$HYPERLINKBASE
  1

  9
$STYLESHEET
  1

  9
$XEDIT
290
     1
  9
$CEPSNTYPE
380
     0
  9
$PSTYLEMODE
290
     1
  9
$FINGERPRINTGUID
  2
{9071f005-ac83-4534-bb8a-4eadf006ca3c}
  9
$VERSIONGUID
  2
{FAEB1C32-E019-11D5-929B-00C0DF256EC4}
  9
$EXTNAMES
290
     1
  9
$PSVPSCALE
 40
0.0
  9
$OLESTARTUP
290
     0
  0
ENDSEC
  0
SECTION
  2
CLASSES
  0
CLASS
  1
ACDBDICTIONARYWDFLT
  2
AcDbDictionaryWithDefault
  3
ObjectDBX Classes
 90
        0
280
     0
281
     0
  0
CLASS
  1
VISUALSTYLE
  2
AcDbVisualStyle
  3
ObjectDBX Classes
 90
     4095
280
     0
281
     0
  0
CLASS
  1
MATERIAL
  2
AcDbMaterial
  3
ObjectDBX Classes
 90
     1153
280
     0
281
     0
  0
CLASS
  1
SCALE
  2
AcDbScale
  3
ObjectDBX Classes
 90
     1153
280
     0
281
     0
  0
CLASS
  1
TABLESTYLE
  2
AcDbTableStyle
  3
ObjectDBX Classes
 90
     4095
280
     0
281
     0
  0
CLASS
  1
MLEADERSTYLE
  2
AcDbMLeaderStyle
  3
ACDB_MLEADERSTYLE_CLASS
 90
     4095
280
     0
281
     0
  0
CLASS
  1
SUN
  2
AcDbSun
  3
SCENEOE
 90
     1153
280
     0
281
     0
  0
CLASS
  1
ACDBPLACEHOLDER
  2
AcDbPlaceHolder
  3
ObjectDBX Classes
 90
        0
280
     0
281
     0
  0
CLASS
  1
LAYOUT
  2
AcDbLayout
  3
ObjectDBX Classes
 90
        0
280
     0
281
     0
  0
ENDSEC
  0
SECTION
  2
TABLES
  0
TABLE
  2
VPORT
  5
8
330
0
100
AcDbSymbolTable
 70
     1
  0
VPORT
  5
29
330
8
100
AcDbSymbolTableRecord
100
AcDbViewportTableRecord
  2
*Active
 70
     0
 10
0.0
 20
0.0
 11
1.0
 21
1.0
 12
139.7
 22
107.95
 13
0.0
 23
0.0
 14
10.0
 24
10.0
 15
10.0
 25
10.0
 16
0.0
 26
0.0
 36
1.0
 17
0.0
 27
0.0
 37
0.0
 40
215.9
 41
1.2941176471
 42
50.0
 43
0.0
 44
0.0
 50
0.0
 51
0.0
 71
     0
 72
  2000
 73
     1
 74
     3
 75
     0
 76
     0
 77
     0
 78
     0
281
     0
 65
     1
110
0.0
120
0.0
130
0.0
111
1.0
121
0.0
131
0.0
112
0.0
122
1.0
132
0.0
 79
     0
146
0.0
  0
ENDTAB
  0
TABLE
  2
LTYPE
  5
5
330
0
100
AcDbSymbolTable
 70
     6
  0
LTYPE
  5
14
330
5
100
AcDbSymbolTableRecord
100
AcDbLinetypeTableRecord
  2
ByBlock
 70
     0
  3

 72
    65
 73
     0
 40
0.0
  0
LTYPE
  5
15
330
5
100
AcDbSymbolTableRecord
100
AcDbLinetypeTableRecord
  2
ByLayer
 70
     0
  3

 72
    65
 73
     0
 40
0.0
  0
LTYPE
  5
16
330
5
100
AcDbSymbolTableRecord
100
AcDbLinetypeTableRecord
  2
Continuous
 70
     0
  3
Solid line
 72
    65
 73
     0
 40
0.0
  0
LTYPE
  5
6E
330
5
100
AcDbSymbolTableRecord
100
AcDbLinetypeTableRecord
  2
HIDDEN
 70
     0
  3
Hidden __ __ __ __ __ __ __ __ __ __ __ __ __ __
 72
    65
 73
     2
 40
1.905
 49
1.27
 74
     0
 49
-0.635
 74
     0
  0
LTYPE
  5
6F
330
5
100
AcDbSymbolTableRecord
100
AcDbLinetypeTableRecord
  2
PHANTOM
 70
     0
  3
Phantom ______  __  __  ______  __  __  ______
 72
    65
 73
     6
 40
12.7
 49
6.35
 74
     0
 49
-1.27
 74
     0
 49
1.27
 74
     0
 49
-1.27
 74
     0
 49
1.27
 74
     0
 49
-1.27
 74
     0
  0
LTYPE
  5
70
330
5
100
AcDbSymbolTableRecord
100
AcDbLinetypeTableRecord
  2
CENTER
 70
     0
  3
Center ____ _ ____ _ ____ _ ____ _ ____ _ ____
 72
    65
 73
     4
 40
10.16
 49
6.35
 74
     0
 49
-1.27
 74
     0
 49
1.27
 74
     0
 49
-1.27
 74
     0
  0
LTYPE
  5
71
330
5
100
AcDbSymbolTableRecord
100
AcDbLinetypeTableRecord
  2
CENTERX2
 70
     0
  3
Center (2x) ________  __  ________  __  _____
 72
    65
 73
     4
 40
20.32
 49
12.7
 74
     0
 49
-2.54
 74
     0
 49
2.54
 74
     0
 49
-2.54
 74
     0
  0
LTYPE
  5
72
330
5
100
AcDbSymbolTableRecord
100
AcDbLinetypeTableRecord
  2
DOT2
 70
     0
  3
Dot (.5x) ........................................
 72
    65
 73
     2
 40
0.635
 49
0.0
 74
     0
 49
-0.635
 74
     0
  0
ENDTAB
  0
TABLE
  2
LAYER
  5
2
330
0
100
AcDbSymbolTable
 70
    17
  0
LAYER
  5
10
330
2
100
AcDbSymbolTableRecord
100
AcDbLayerTableRecord
  2
0
 70
     0
 62
     7
  6
Continuous
370
    -3
390
F
  0
LAYER
  5
73
330
2
100
AcDbSymbolTableRecord
100
AcDbLayerTableRecord
  2
FORMAT
 70
     0
 62
     7
  6
Continuous
370
    -3
390
F
  0
LAYER
  5
74
330
2
100
AcDbSymbolTableRecord
100
AcDbLayerTableRecord
  2
YARDIMCI_GEOMETRI
 70
     0
 62
    -6
  6
Continuous
290
     0
370
    -3
390
F
  0
LAYER
  5
75
330
2
100
AcDbSymbolTableRecord
100
AcDbLayerTableRecord
  2
SAYFA_CERCEVESI
 70
     0
 62
     7
  6
Continuous
370
    25
390
F
  0
LAYER
  5
76
330
2
100
AcDbSymbolTableRecord
100
AcDbLayerTableRecord
  2
ANTET
 70
     0
 62
     7
  6
Continuous
370
    -3
390
F
  0
LAYER
  5
77
330
2
100
AcDbSymbolTableRecord
100
AcDbLayerTableRecord
  2
OLCU
 70
     0
 62
   150
  6
Continuous
370
    -3
390
F
  0
LAYER
  5
78
330
2
100
AcDbSymbolTableRecord
100
AcDbLayerTableRecord
  2
METIN
 70
     0
 62
    96
  6
Continuous
370
    -3
390
F
  0
LAYER
  5
79
330
2
100
AcDbSymbolTableRecord
100
AcDbLayerTableRecord
  2
BALON
 70
     0
 62
     5
  6
Continuous
370
    -3
390
F
  0
LAYER
  5
7A
330
2
100
AcDbSymbolTableRecord
100
AcDbLayerTableRecord
  2
VURGU
 70
     0
 62
     7
  6
Continuous
370
    -3
390
F
  0
LAYER
  5
7B
330
2
100
AcDbSymbolTableRecord
100
AcDbLayerTableRecord
  2
SILIK
 70
     0
 62
     7
  6
Continuous
370
    -3
390
F
  0
LAYER
  5
7C
330
2
100
AcDbSymbolTableRecord
100
AcDbLayerTableRecord
  2
MODEL
 70
     0
 62
     7
  6
Continuous
370
    -3
390
F
  0
LAYER
  5
7D
330
2
100
AcDbSymbolTableRecord
100
AcDbLayerTableRecord
  2
DETAYLANDıRMA
 70
     0
 62
   190
  6
Continuous
370
    -3
390
F
  0
LAYER
  5
7E
330
2
100
AcDbSymbolTableRecord
100
AcDbLayerTableRecord
  2
TOLERANS
 70
     0
 62
   230
  6
Continuous
370
    -3
390
F
  0
LAYER
  5
7F
330
2
100
AcDbSymbolTableRecord
100
AcDbLayerTableRecord
  2
MERKEZ_CIZGILERI
 70
     0
 62
    30
  6
Continuous
370
    -3
390
F
  0
LAYER
  5
80
330
2
100
AcDbSymbolTableRecord
100
AcDbLayerTableRecord
  2
KESIT-DETAY_CIZGILERI
 70
     0
 62
     7
  6
Continuous
370
    -3
390
F
  0
LAYER
  5
81
330
2
100
AcDbSymbolTableRecord
100
AcDbLayerTableRecord
  2
\U+041E\U+0421\U+0415\U+0412\U+042B\U+0415
 70
     0
 62
     7
  6
Continuous
370
    -3
390
F
  0
LAYER
  5
82
330
2
100
AcDbSymbolTableRecord
100
AcDbLayerTableRecord
  2
\U+0412\U+041E\U+0414\U+042F\U+041D\U+042B\U+0415_\U+0417\U+041D\U+0410\U+041A\U+0418
 70
     0
 62
    11
  6
Continuous
370
    -3
390
F
  0
ENDTAB
  0
TABLE
  2
STYLE
  5
3
330
0
100
AcDbSymbolTable
 70
     1
  0
STYLE
  5
11
330
3
100
AcDbSymbolTableRecord
100
AcDbTextStyleTableRecord
  2
Standard
 70
     0
 40
0.0
 41
1.0
 50
0.0
 71
     0
 42
3.5
  3
txt
  4

  0
ENDTAB
  0
TABLE
  2
VIEW
  5
6
330
0
100
AcDbSymbolTable
 70
     0
  0
ENDTAB
  0
TABLE
  2
UCS
  5
7
330
0
100
AcDbSymbolTable
 70
     0
  0
ENDTAB
  0
TABLE
  2
APPID
  5
9
330
0
100
AcDbSymbolTable
 70
     1
  0
APPID
  5
12
330
9
100
AcDbSymbolTableRecord
100
AcDbRegAppTableRecord
  2
ACAD
 70
     0
  0
ENDTAB
  0
TABLE
  2
DIMSTYLE
  5
A
330
0
100
AcDbSymbolTable
 70
     1
100
AcDbDimStyleTable
  0
DIMSTYLE
105
27
330
A
100
AcDbSymbolTableRecord
100
AcDbDimStyleTableRecord
  2
ISO-25
 70
     0
 41
2.5
 42
0.625
 43
3.75
 44
1.25
 73
     0
 74
     0
 77
     1
 78
     8
140
2.5
141
2.5
143
0.0393700787
147
0.625
171
     3
172
     1
178
     0
271
     2
272
     2
274
     3
278
    44
283
     0
284
     8
340
11
  0
ENDTAB
  0
TABLE
  2
BLOCK_RECORD
  5
1
330
0
100
AcDbSymbolTable
 70
     4
  0
BLOCK_RECORD
  5
1F
330
1
100
AcDbSymbolTableRecord
100
AcDbBlockTableRecord
  2
*Model_Space
340
22
  0
BLOCK_RECORD
  5
1B
330
1
100
AcDbSymbolTableRecord
100
AcDbBlockTableRecord
  2
*Paper_Space
340
1E
  0
BLOCK_RECORD
  5
23
330
1
100
AcDbSymbolTableRecord
100
AcDbBlockTableRecord
  2
*Paper_Space0
340
26
  0
BLOCK_RECORD
  5
8E
330
1
100
AcDbSymbolTableRecord
100
AcDbBlockTableRecord
  2
SW_CENTERMARKSYMBOL_0
340
0
102
{BLKREFS
331
99
102
}
  0
BLOCK_RECORD
  5
C8
330
1
100
AcDbSymbolTableRecord
100
AcDbBlockTableRecord
  2
SW_CENTERMARKSYMBOL_1
340
0
102
{BLKREFS
331
D3
102
}
  0
BLOCK_RECORD
  5
D4
330
1
100
AcDbSymbolTableRecord
100
AcDbBlockTableRecord
  2
SW_CENTERMARKSYMBOL_2
340
0
102
{BLKREFS
331
DF
102
}
  0
ENDTAB
  0
ENDSEC
  0
SECTION
  2
BLOCKS
  0
BLOCK
  5
20
330
1F
100
AcDbEntity
  8
0
100
AcDbBlockBegin
  2
*Model_Space
 70
     0
 10
0.0
 20
0.0
 30
0.0
  3
*Model_Space
  1

  0
ENDBLK
  5
21
330
1F
100
AcDbEntity
  8
0
100
AcDbBlockEnd
  0
BLOCK
  5
1C
330
1B
100
AcDbEntity
 67
     1
  8
0
100
AcDbBlockBegin
  2
*Paper_Space
 70
     0
 10
0.0
 20
0.0
 30
0.0
  3
*Paper_Space
  1

  0
ENDBLK
  5
1D
330
1B
100
AcDbEntity
 67
     1
  8
0
100
AcDbBlockEnd
  0
BLOCK
  5
24
330
23
100
AcDbEntity
  8
0
100
AcDbBlockBegin
  2
*Paper_Space0
 70
     0
 10
0.0
 20
0.0
 30
0.0
  3
*Paper_Space0
  1

  0
ENDBLK
  5
25
330
23
100
AcDbEntity
  8
0
100
AcDbBlockEnd
  0
BLOCK
  5
8F
330
8E
100
AcDbEntity
  8
0
100
AcDbBlockBegin
  2
SW_CENTERMARKSYMBOL_0
 70
     0
 10
0.0
 20
0.0
 30
0.0
  3
SW_CENTERMARKSYMBOL_0
  1

  0
LINE
  5
91
330
8E
100
AcDbEntity
  8
FORMAT
 62
     0
100
AcDbLine
 10
0.0
 20
0.0
 30
0.0
 11
0.0
 21
2.5
 31
0.0
  0
LINE
  5
92
330
8E
100
AcDbEntity
  8
FORMAT
 62
     0
100
AcDbLine
 10
0.0
 20
0.0
 30
0.0
 11
-2.5
 21
0.0
 31
0.0
  0
LINE
  5
93
330
8E
100
AcDbEntity
  8
FORMAT
 62
     0
100
AcDbLine
 10
0.0
 20
0.0
 30
0.0
 11
0.0
 21
-2.5
 31
0.0
  0
LINE
  5
94
330
8E
100
AcDbEntity
  8
FORMAT
 62
     0
100
AcDbLine
 10
0.0
 20
0.0
 30
0.0
 11
2.5
 21
0.0
 31
0.0
  0
LINE
  5
95
330
8E
100
AcDbEntity
  8
FORMAT
 62
     0
100
AcDbLine
 10
0.0
 20
5.0
 30
0.0
 11
0.0
 21
51.5
 31
0.0
  0
LINE
  5
96
330
8E
100
AcDbEntity
  8
FORMAT
 62
     0
100
AcDbLine
 10
-5.0
 20
0.0
 30
0.0
 11
-51.5
 21
0.0
 31
0.0
  0
LINE
  5
97
330
8E
100
AcDbEntity
  8
FORMAT
 62
     0
100
AcDbLine
 10
0.0
 20
-5.0
 30
0.0
 11
0.0
 21
-51.5
 31
0.0
  0
LINE
  5
98
330
8E
100
AcDbEntity
  8
FORMAT
 62
     0
100
AcDbLine
 10
5.0
 20
0.0
 30
0.0
 11
51.5
 21
0.0
 31
0.0
  0
ENDBLK
  5
90
330
8E
100
AcDbEntity
  8
0
100
AcDbBlockEnd
  0
BLOCK
  5
C9
330
C8
100
AcDbEntity
  8
0
100
AcDbBlockBegin
  2
SW_CENTERMARKSYMBOL_1
 70
     0
 10
0.0
 20
0.0
 30
0.0
  3
SW_CENTERMARKSYMBOL_1
  1

  0
LINE
  5
CB
330
C8
100
AcDbEntity
  8
FORMAT
 62
     0
100
AcDbLine
 10
0.0
 20
0.0
 30
0.0
 11
0.0
 21
2.5
 31
0.0
  0
LINE
  5
CC
330
C8
100
AcDbEntity
  8
FORMAT
 62
     0
100
AcDbLine
 10
0.0
 20
0.0
 30
0.0
 11
-2.5
 21
0.0
 31
0.0
  0
LINE
  5
CD
330
C8
100
AcDbEntity
  8
FORMAT
 62
     0
100
AcDbLine
 10
0.0
 20
0.0
 30
0.0
 11
0.0
 21
-2.5
 31
0.0
  0
LINE
  5
CE
330
C8
100
AcDbEntity
  8
FORMAT
 62
     0
100
AcDbLine
 10
0.0
 20
0.0
 30
0.0
 11
2.5
 21
0.0
 31
0.0
  0
LINE
  5
CF
330
C8
100
AcDbEntity
  8
FORMAT
 62
     0
100
AcDbLine
 10
0.0
 20
5.0
 30
0.0
 11
0.0
 21
9.5
 31
0.0
  0
LINE
  5
D0
330
C8
100
AcDbEntity
  8
FORMAT
 62
     0
100
AcDbLine
 10
-5.0
 20
0.0
 30
0.0
 11
-9.5
 21
0.0
 31
0.0
  0
LINE
  5
D1
330
C8
100
AcDbEntity
  8
FORMAT
 62
     0
100
AcDbLine
 10
0.0
 20
-5.0
 30
0.0
 11
0.0
 21
-9.5
 31
0.0
  0
LINE
  5
D2
330
C8
100
AcDbEntity
  8
FORMAT
 62
     0
100
AcDbLine
 10
5.0
 20
0.0
 30
0.0
 11
9.5
 21
0.0
 31
0.0
  0
ENDBLK
  5
CA
330
C8
100
AcDbEntity
  8
0
100
AcDbBlockEnd
  0
BLOCK
  5
D5
330
D4
100
AcDbEntity
  8
0
100
AcDbBlockBegin
  2
SW_CENTERMARKSYMBOL_2
 70
     0
 10
0.0
 20
0.0
 30
0.0
  3
SW_CENTERMARKSYMBOL_2
  1

  0
LINE
  5
D7
330
D4
100
AcDbEntity
  8
FORMAT
 62
     0
100
AcDbLine
 10
0.0
 20
0.0
 30
0.0
 11
0.0
 21
2.5
 31
0.0
  0
LINE
  5
D8
330
D4
100
AcDbEntity
  8
FORMAT
 62
     0
100
AcDbLine
 10
0.0
 20
0.0
 30
0.0
 11
-2.5
 21
0.0
 31
0.0
  0
LINE
  5
D9
330
D4
100
AcDbEntity
  8
FORMAT
 62
     0
100
AcDbLine
 10
0.0
 20
0.0
 30
0.0
 11
0.0
 21
-2.5
 31
0.0
  0
LINE
  5
DA
330
D4
100
AcDbEntity
  8
FORMAT
 62
     0
100
AcDbLine
 10
0.0
 20
0.0
 30
0.0
 11
2.5
 21
0.0
 31
0.0
  0
LINE
  5
DB
330
D4
100
AcDbEntity
  8
FORMAT
 62
     0
100
AcDbLine
 10
0.0
 20
5.0
 30
0.0
 11
0.0
 21
9.5
 31
0.0
  0
LINE
  5
DC
330
D4
100
AcDbEntity
  8
FORMAT
 62
     0
100
AcDbLine
 10
-5.0
 20
0.0
 30
0.0
 11
-9.5
 21
0.0
 31
0.0
  0
LINE
  5
DD
330
D4
100
AcDbEntity
  8
FORMAT
 62
     0
100
AcDbLine
 10
0.0
 20
-5.0
 30
0.0
 11
0.0
 21
-9.5
 31
0.0
  0
LINE
  5
DE
330
D4
100
AcDbEntity
  8
FORMAT
 62
     0
100
AcDbLine
 10
5.0
 20
0.0
 30
0.0
 11
9.5
 21
0.0
 31
0.0
  0
ENDBLK
  5
D6
330
D4
100
AcDbEntity
  8
0
100
AcDbBlockEnd
  0
ENDSEC
  0
SECTION
  2
ENTITIES
  0
LINE
  5
83
330
1F
100
AcDbEntity
  8
0
  6
Continuous
 62
     7
370
    25
100
AcDbLine
 10
129.1701403815
 20
69.1746598506
 30
0.0
 11
129.1701403815
 21
47.1754170122
 31
0.0
  0
LINE
  5
84
330
1F
100
AcDbEntity
  8
0
  6
Continuous
 62
     7
370
    25
100
AcDbLine
 10
143.1701403815
 20
47.1754170122
 30
0.0
 11
143.1701403815
 21
69.1775651323
 31
0.0
  0
LINE
  5
85
330
1F
100
AcDbEntity
  8
0
  6
Continuous
 62
     7
370
    25
100
AcDbLine
 10
129.1701403815
 20
69.1779944003
 30
0.0
 11
129.1701403815
 21
69.1746598506
 31
0.0
  0
LINE
  5
86
330
1F
100
AcDbEntity
  8
0
  6
Continuous
 62
     7
370
    25
100
AcDbLine
 10
143.1701403815
 20
69.1775651323
 30
0.0
 11
143.1701403815
 21
69.1779944003
 31
0.0
  0
CIRCLE
  5
87
330
1F
100
AcDbEntity
  8
0
  6
Continuous
 62
     7
370
    25
100
AcDbCircle
 10
136.1701403815
 20
117.6754170122
 30
0.0
 40
49.0
  0
CIRCLE
  5
88
330
1F
100
AcDbEntity
  8
0
  6
Continuous
 62
     7
370
    25
100
AcDbCircle
 10
136.1701403815
 20
117.6754170122
 30
0.0
 40
37.5
  0
LINE
  5
89
330
1F
100
AcDbEntity
  8
0
  6
Continuous
 62
     7
370
    25
100
AcDbLine
 10
136.1701403815
 20
47.1754170122
 30
0.0
 11
143.1701403815
 21
47.1754170122
 31
0.0
  0
LINE
  5
8A
330
1F
100
AcDbEntity
  8
0
  6
Continuous
 62
     7
370
    25
100
AcDbLine
 10
129.1701403815
 20
47.1754170122
 30
0.0
 11
136.1701403815
 21
47.1754170122
 31
0.0
  0
CIRCLE
  5
8B
330
1F
100
AcDbEntity
  8
0
  6
Continuous
 62
     7
370
    25
100
AcDbCircle
 10
136.1701403815
 20
117.6754170122
 30
0.0
 40
36.81700921573702
  0
CIRCLE
  5
8C
330
1F
100
AcDbEntity
  8
0
  6
Continuous
 62
     7
370
    25
100
AcDbCircle
 10
136.1701403815
 20
117.6754170122
 30
0.0
 40
32.18299078426297
  0
CIRCLE
  5
8D
330
1F
100
AcDbEntity
  8
0
  6
Continuous
 62
     7
370
    25
100
AcDbCircle
 10
136.1701403815
 20
117.6754170122
 30
0.0
 40
31.5
  0
INSERT
  5
99
330
1F
100
AcDbEntity
  8
FORMAT
 62
     7
100
AcDbBlockReference
  2
SW_CENTERMARKSYMBOL_0
 10
136.1701403815
 20
117.6754170122
 30
0.0
  0
LINE
  5
9A
330
1F
100
AcDbEntity
  8
0
  6
Continuous
 62
     7
370
    25
100
AcDbLine
 10
-29.9307084982
 20
166.6754170122
 30
0.0
 11
-91.023172045
 21
166.6754170122
 31
0.0
  0
LINE
  5
9B
330
1F
100
AcDbEntity
  8
0
  6
Continuous
 62
     7
370
    25
100
AcDbLine
 10
-76.0433953881
 20
68.6754170122
 30
0.0
 11
-29.9307084982
 21
68.6754170122
 31
0.0
  0
LINE
  5
9C
330
1F
100
AcDbEntity
  8
0
  6
Continuous
 62
     7
370
    25
100
AcDbLine
 10
-91.023172045
 20
68.6754170122
 30
0.0
 11
-90.023172045
 21
68.6754170122
 31
0.0
  0
ARC
  5
9D
330
1F
100
AcDbEntity
  8
0
  6
Continuous
 62
     7
370
    25
100
AcDbCircle
 10
-29.9307084982
 20
164.6754170122
 30
0.0
 40
2.000000000000028
100
AcDbArc
 50
41.1859251657
 51
90.0
  0
ARC
  5
9E
330
1F
100
AcDbEntity
  8
0
  6
Continuous
 62
     7
370
    25
100
AcDbCircle
 10
-29.9307084982
 20
70.6754170122
 30
0.0
 40
2.000000000000014
100
AcDbArc
 50
270.0
 51
318.8140748343
  0
LINE
  5
9F
330
1F
100
AcDbEntity
  8
0
  6
Continuous
 62
     7
370
    25
100
AcDbLine
 10
-28.4255551088
 20
69.3584077965
 30
0.0
 11
-22.6207889813
 21
75.992426228
 31
0.0
  0
LINE
  5
A0
330
1F
100
AcDbEntity
  8
0
  6
Continuous
 62
     7
370
    25
100
AcDbLine
 10
-22.6207889813
 20
159.3584077965
 30
0.0
 11
-28.4255551088
 21
165.992426228
 31
0.0
  0
ARC
  5
A1
330
1F
100
AcDbEntity
  8
0
  6
Continuous
 62
     7
370
    25
100
AcDbCircle
 10
-21.1156355919
 20
160.6754170122
 30
0.0
 40
2.000000000000006
100
AcDbArc
 50
221.1859251657
 51
270.0
  0
ARC
  5
A2
330
1F
100
AcDbEntity
  8
0
  6
Continuous
 62
     7
370
    25
100
AcDbCircle
 10
-21.1156355919
 20
74.6754170122
 30
0.0
 40
2.000000000000006
100
AcDbArc
 50
90.0
 51
138.8140748343
  0
LINE
  5
A3
330
1F
100
AcDbEntity
  8
0
  6
Continuous
 62
     7
370
    25
100
AcDbLine
 10
33.976827955
 20
158.6754170122
 30
0.0
 11
-21.1156355919
 21
158.6754170122
 31
0.0
  0
LINE
  5
A4
330
1F
100
AcDbEntity
  8
0
  6
Continuous
 62
     7
370
    25
100
AcDbLine
 10
32.9577815801
 20
76.6754170122
 30
0.0
 11
33.976827955
 21
76.6754170122
 31
0.0
  0
LINE
  5
A5
330
1F
100
AcDbEntity
  8
0
  6
Continuous
 62
     7
370
    25
100
AcDbLine
 10
-21.1156355919
 20
76.6754170122
 30
0.0
 11
18.976827955
 21
76.6754170122
 31
0.0
  0
LINE
  5
A6
330
1F
100
AcDbEntity
  8
0
  6
Continuous
 62
     7
370
    25
100
AcDbLine
 10
18.976827955
 20
76.6754170122
 30
0.0
 11
18.976827955
 21
61.1754170122
 31
0.0
  0
LINE
  5
A7
330
1F
100
AcDbEntity
  8
0
  6
Continuous
 62
     7
370
    25
100
AcDbLine
 10
32.976827955
 20
61.1754170122
 30
0.0
 11
32.976827955
 21
76.6786559386
 31
0.0
  0
LINE
  5
A8
330
1F
100
AcDbEntity
  8
0
  6
Continuous
 62
     7
370
    25
100
AcDbLine
 10
-90.023172045
 20
68.6754170122
 30
0.0
 11
-90.023172045
 21
47.1754170122
 31
0.0
  0
LINE
  5
A9
330
1F
100
AcDbEntity
  8
0
  6
Continuous
 62
     7
370
    25
100
AcDbLine
 10
-76.023172045
 20
47.1754170122
 30
0.0
 11
-76.023172045
 21
68.6782960017
 31
0.0
  0
LINE
  5
AA
330
1F
100
AcDbEntity
  8
0
  6
Continuous
 62
     7
370
    25
100
AcDbLine
 10
-91.023172045
 20
166.6754170122
 30
0.0
 11
-91.023172045
 21
68.6754170122
 31
0.0
  0
SPLINE
  5
AB
330
1F
100
AcDbEntity
  8
0
  6
Continuous
 62
     7
370
    25
100
AcDbSpline
210
0.0
220
0.0
230
1.0
 70
     8
 71
     3
 72
    26
 73
    22
 74
     0
 42
0.00000001
 43
0.00000001
 40
0.0
 40
0.0
 40
0.0
 40
0.0
 40
0.0159670158167014
 40
0.0700835861542807
 40
0.1224491777100799
 40
0.1763144694008344
 40
0.2290320863892344
 40
0.2832557653269971
 40
0.336354114278527
 40
0.3910012753941179
 40
0.4439134784956487
 40
0.4983879558291237
 40
0.550829147098384
 40
0.6047940175116923
 40
0.6572174037496911
 40
0.7111354610975488
 40
0.7640175973157585
 40
0.8184188251437144
 40
0.871525214346528
 40
0.926191218636318
 40
0.9999999999999999
 40
0.9999999999999999
 40
0.9999999999999999
 40
0.9999999999999999
 10
-76.04339538812904
 20
68.67829898353972
 30
0.0
 10
-76.0376243438448
 20
68.67747669187032
 30
0.0
 10
-76.01229365688745
 20
68.67386742951868
 30
0.0
 10
-76.16642966542234
 20
68.6958990274218
 30
0.0
 10
-76.50700227737411
 20
68.74279981800962
 30
0.0
 10
-77.03892880933182
 20
68.81146796987962
 30
0.0
 10
-77.74057833908638
 20
68.89315800289076
 30
0.0
 10
-78.58799751366988
 20
68.97848086568659
 30
0.0
 10
-79.57153456358918
 20
69.05896823568655
 30
0.0
 10
-80.64640689237318
 20
69.12407992631914
 30
0.0
 10
-81.79890886640781
 20
69.16723620721176
 30
0.0
 10
-82.97154298478856
 20
69.18277543865908
 30
0.0
 10
-84.1526808910951
 20
69.16947836454291
 30
0.0
 10
-85.28728086093092
 20
69.12940740169644
 30
0.0
 10
-86.36749754152201
 20
69.06646459956048
 30
0.0
 10
-87.34728967053309
 20
68.98851690270946
 30
0.0
 10
-88.21638036656775
 20
68.90289477985549
 30
0.0
 10
-88.93654292300033
 20
68.820155884207
 30
0.0
 10
-89.49160896271742
 20
68.7492820017938
 30
0.0
 10
-89.92490965133426
 20
68.6896539659657
 30
0.0
 10
-89.98731827975824
 20
68.68061176048397
 30
0.0
 10
-90.0231720450486
 20
68.67541701223784
 30
0.0
  0
SPLINE
  5
AC
330
1F
100
AcDbEntity
  8
0
  6
Continuous
 62
     7
370
    25
100
AcDbSpline
210
0.0
220
0.0
230
1.0
 70
     8
 71
     3
 72
    26
 73
    22
 74
     0
 42
0.00000001
 43
0.00000001
 40
0.0
 40
0.0
 40
0.0
 40
0.0
 40
0.0144960522290633
 40
0.068474981243472
 40
0.1206021504720757
 40
0.1742149748579979
 40
0.22683015217311
 40
0.2809384361435739
 40
0.3341060595863565
 40
0.3888271975210338
 40
0.4417480658067914
 40
0.496243905395519
 40
0.5484857886863532
 40
0.6022479452316077
 40
0.6544446310825143
 40
0.7081190220074691
 40
0.7609655500509162
 40
0.8153228904220634
 40
0.8685100502632043
 40
0.9232666433628253
 40
1.0
 40
1.0
 40
1.0
 40
1.0
 10
32.95778158007629
 20
76.67866023194769
 30
0.0
 10
32.96336888886803
 20
76.6777089503321
 30
0.0
 10
32.98976165144025
 20
76.67321538272105
 30
0.0
 10
32.84064136563973
 20
76.69869810672448
 30
0.0
 10
32.50775606624425
 20
76.75358489989895
 30
0.0
 10
31.98407356375754
 20
76.83468100895179
 30
0.0
 10
31.29117679029873
 20
76.9316993793633
 30
0.0
 10
30.45088686321417
 20
77.0337749804199
 30
0.0
 10
29.47257193099485
 20
77.13076714069683
 30
0.0
 10
28.40038306869459
 20
77.20989020771297
 30
0.0
 10
27.24904312429958
 20
77.26299330689733
 30
0.0
 10
26.0777802441021
 20
77.28303110551154
 30
0.0
 10
24.89819038323283
 20
77.26853931339619
 30
0.0
 10
23.76559770836522
 20
77.22199025293868
 30
0.0
 10
22.68613524579031
 20
77.14795557581927
 30
0.0
 10
21.7041659656863
 20
77.05558928641551
 30
0.0
 10
20.82973380271024
 20
76.95344259772416
 30
0.0
 10
20.10087717861158
 20
76.85395006368573
 30
0.0
 10
19.53529829849434
 20
76.76800879356277
 30
0.0
 10
19.08196508739507
 20
76.69364119408974
 30
0.0
 10
19.01557253748683
 20
76.68213289178952
 30
0.0
 10
18.97682795495139
 20
76.67541701223782
 30
0.0
  0
LINE
  5
AD
330
1F
100
AcDbEntity
  8
0
  6
Continuous
 62
     7
370
    25
100
AcDbLine
 10
33.976827955
 20
158.6754170122
 30
0.0
 11
33.976827955
 21
76.6754170122
 31
0.0
  0
LINE
  5
AE
330
1F
100
AcDbEntity
  8
0
  6
Continuous
 62
     7
370
    25
100
AcDbLine
 10
18.976827955
 20
61.1754170122
 30
0.0
 11
32.976827955
 21
61.1754170122
 31
0.0
  0
LINE
  5
AF
330
1F
100
AcDbEntity
  8
0
  6
Continuous
 62
     7
370
    25
100
AcDbLine
 10
-90.023172045
 20
47.1754170122
 30
0.0
 11
-76.023172045
 21
47.1754170122
 31
0.0
  0
LINE
  5
B0
330
1F
100
AcDbEntity
  8
0
  6
Continuous
 62
     1
370
    25
100
AcDbLine
 10
-29.9307084982
 20
166.6754170122
 30
0.0
 11
-29.9307084982
 21
68.6754170122
 31
0.0
  0
LINE
  5
B1
330
1F
100
AcDbEntity
  8
0
  6
Continuous
 62
     1
370
    25
100
AcDbLine
 10
-28.4255551088
 20
165.992426228
 30
0.0
 11
-28.4255551088
 21
69.3584077965
 31
0.0
  0
LINE
  5
B2
330
1F
100
AcDbEntity
  8
0
  6
Continuous
 62
     1
370
    25
100
AcDbLine
 10
-22.6207889813
 20
159.3584077965
 30
0.0
 11
-22.6207889813
 21
75.992426228
 31
0.0
  0
LINE
  5
B3
330
1F
100
AcDbEntity
  8
0
  6
Continuous
 62
     1
370
    25
100
AcDbLine
 10
-21.1156355919
 20
158.6754170122
 30
0.0
 11
-21.1156355919
 21
76.6754170122
 31
0.0
  0
LINE
  5
B4
330
1F
100
AcDbEntity
  8
0
  6
Continuous
 62
     7
370
    25
100
AcDbLine
 10
185.1701403815
 20
267.266044836
 30
0.0
 11
185.1701403815
 21
328.3585083828
 31
0.0
  0
LINE
  5
B5
330
1F
100
AcDbEntity
  8
0
  6
Continuous
 62
     7
370
    25
100
AcDbLine
 10
87.1701403815
 20
328.3585083828
 30
0.0
 11
87.1701403815
 21
267.266044836
 31
0.0
  0
ARC
  5
B6
330
1F
100
AcDbEntity
  8
0
  6
Continuous
 62
     7
370
    25
100
AcDbCircle
 10
183.1701403815
 20
267.266044836
 30
0.0
 40
2.000000000000044
100
AcDbArc
 50
311.1859251657
 51
0.0
  0
ARC
  5
B7
330
1F
100
AcDbEntity
  8
0
  6
Continuous
 62
     7
370
    25
100
AcDbCircle
 10
89.1701403815
 20
267.266044836
 30
0.0
 40
2.000000000000044
100
AcDbArc
 50
180.0
 51
228.8140748343
  0
LINE
  5
B8
330
1F
100
AcDbEntity
  8
0
  6
Continuous
 62
     7
370
    25
100
AcDbLine
 10
87.8531311658
 20
265.7608914466
 30
0.0
 11
94.4871495972
 21
259.956125319
 31
0.0
  0
LINE
  5
B9
330
1F
100
AcDbEntity
  8
0
  6
Continuous
 62
     7
370
    25
100
AcDbLine
 10
177.8531311658
 20
259.956125319
 30
0.0
 11
184.4871495972
 21
265.7608914466
 31
0.0
  0
ARC
  5
BA
330
1F
100
AcDbEntity
  8
0
  6
Continuous
 62
     7
370
    25
100
AcDbCircle
 10
179.1701403815
 20
258.4509719296
 30
0.0
 40
2.0
100
AcDbArc
 50
131.1859251657
 51
180.0
  0
ARC
  5
BB
330
1F
100
AcDbEntity
  8
0
  6
Continuous
 62
     7
370
    25
100
AcDbCircle
 10
93.1701403815
 20
258.4509719296
 30
0.0
 40
2.0
100
AcDbArc
 50
0.0
 51
48.8140748343
  0
LINE
  5
BC
330
1F
100
AcDbEntity
  8
0
  6
Continuous
 62
     7
370
    25
100
AcDbLine
 10
177.1701403815
 20
203.3585083828
 30
0.0
 11
177.1701403815
 21
258.4509719296
 31
0.0
  0
LINE
  5
BD
330
1F
100
AcDbEntity
  8
0
  6
Continuous
 62
     7
370
    25
100
AcDbLine
 10
95.1701403815
 20
258.4509719296
 30
0.0
 11
95.1701403815
 21
203.3585083828
 31
0.0
  0
CIRCLE
  5
BE
330
1F
100
AcDbEntity
  8
0
  6
Continuous
 62
     7
370
    25
100
AcDbCircle
 10
136.1701403815
 20
320.3585083828
 30
0.0
 40
7.000000000000057
  0
CIRCLE
  5
BF
330
1F
100
AcDbEntity
  8
0
  6
Continuous
 62
     7
370
    25
100
AcDbCircle
 10
136.1701403815
 20
320.3585083828
 30
0.0
 40
5.000000000000057
  0
CIRCLE
  5
C0
330
1F
100
AcDbEntity
  8
0
  6
Continuous
 62
     7
370
    25
100
AcDbCircle
 10
136.1701403815
 20
211.3585083828
 30
0.0
 40
7.000000000000028
  0
CIRCLE
  5
C1
330
1F
100
AcDbEntity
  8
0
  6
Continuous
 62
     7
370
    25
100
AcDbCircle
 10
136.1701403815
 20
211.3585083828
 30
0.0
 40
5.000000000000028
  0
LINE
  5
C2
330
1F
100
AcDbEntity
  8
0
  6
Continuous
 62
     7
370
    25
100
AcDbLine
 10
185.1701403815
 20
328.3585083828
 30
0.0
 11
87.1701403815
 21
328.3585083828
 31
0.0
  0
LINE
  5
C3
330
1F
100
AcDbEntity
  8
0
  6
Continuous
 62
     7
370
    25
100
AcDbLine
 10
177.1701403815
 20
203.3585083828
 30
0.0
 11
95.1701403815
 21
203.3585083828
 31
0.0
  0
LINE
  5
C4
330
1F
100
AcDbEntity
  8
0
  6
Continuous
 62
     1
370
    25
100
AcDbLine
 10
185.1701403815
 20
267.266044836
 30
0.0
 11
87.1701403815
 21
267.266044836
 31
0.0
  0
LINE
  5
C5
330
1F
100
AcDbEntity
  8
0
  6
Continuous
 62
     1
370
    25
100
AcDbLine
 10
184.4871495972
 20
265.7608914466
 30
0.0
 11
87.8531311658
 21
265.7608914466
 31
0.0
  0
LINE
  5
C6
330
1F
100
AcDbEntity
  8
0
  6
Continuous
 62
     1
370
    25
100
AcDbLine
 10
177.8531311658
 20
259.956125319
 30
0.0
 11
94.4871495972
 21
259.956125319
 31
0.0
  0
LINE
  5
C7
330
1F
100
AcDbEntity
  8
0
  6
Continuous
 62
     1
370
    25
100
AcDbLine
 10
177.1701403815
 20
258.4509719296
 30
0.0
 11
95.1701403815
 21
258.4509719296
 31
0.0
  0
INSERT
  5
D3
330
1F
100
AcDbEntity
  8
FORMAT
 62
     7
100
AcDbBlockReference
  2
SW_CENTERMARKSYMBOL_1
 10
136.1701403815
 20
211.3585083828
 30
0.0
  0
INSERT
  5
DF
330
1F
100
AcDbEntity
  8
FORMAT
 62
     7
100
AcDbBlockReference
  2
SW_CENTERMARKSYMBOL_2
 10
136.1701403815
 20
320.3585083828
 30
0.0
  0
LINE
  5
E0
330
1F
100
AcDbEntity
  8
0
  6
Continuous
 62
     7
370
    25
100
AcDbLine
 10
347.575733867
 20
68.6754170122
 30
0.0
 11
348.575733867
 21
68.6754170122
 31
0.0
  0
LINE
  5
E1
330
1F
100
AcDbEntity
  8
0
  6
Continuous
 62
     7
370
    25
100
AcDbLine
 10
287.4832703202
 20
68.6754170122
 30
0.0
 11
333.5959572101
 21
68.6754170122
 31
0.0
  0
LINE
  5
E2
330
1F
100
AcDbEntity
  8
0
  6
Continuous
 62
     7
370
    25
100
AcDbLine
 10
348.575733867
 20
166.6754170122
 30
0.0
 11
287.4832703202
 21
166.6754170122
 31
0.0
  0
ARC
  5
E3
330
1F
100
AcDbEntity
  8
0
  6
Continuous
 62
     7
370
    25
100
AcDbCircle
 10
287.4832703202
 20
70.6754170122
 30
0.0
 40
2.000000000000014
100
AcDbArc
 50
221.1859251657
 51
270.0
  0
ARC
  5
E4
330
1F
100
AcDbEntity
  8
0
  6
Continuous
 62
     7
370
    25
100
AcDbCircle
 10
287.4832703202
 20
164.6754170122
 30
0.0
 40
2.0
100
AcDbArc
 50
90.0
 51
138.8140748343
  0
LINE
  5
E5
330
1F
100
AcDbEntity
  8
0
  6
Continuous
 62
     7
370
    25
100
AcDbLine
 10
285.9781169308
 20
165.992426228
 30
0.0
 11
280.1733508032
 21
159.3584077965
 31
0.0
  0
LINE
  5
E6
330
1F
100
AcDbEntity
  8
0
  6
Continuous
 62
     7
370
    25
100
AcDbLine
 10
280.1733508032
 20
75.992426228
 30
0.0
 11
285.9781169308
 21
69.3584077965
 31
0.0
  0
ARC
  5
E7
330
1F
100
AcDbEntity
  8
0
  6
Continuous
 62
     7
370
    25
100
AcDbCircle
 10
278.6681974138
 20
74.6754170122
 30
0.0
 40
2.0
100
AcDbArc
 50
41.1859251657
 51
90.0
  0
ARC
  5
E8
330
1F
100
AcDbEntity
  8
0
  6
Continuous
 62
     7
370
    25
100
AcDbCircle
 10
278.6681974138
 20
160.6754170122
 30
0.0
 40
2.0
100
AcDbArc
 50
270.0
 51
318.8140748343
  0
LINE
  5
E9
330
1F
100
AcDbEntity
  8
0
  6
Continuous
 62
     7
370
    25
100
AcDbLine
 10
238.575733867
 20
76.6754170122
 30
0.0
 11
278.6681974138
 21
76.6754170122
 31
0.0
  0
LINE
  5
EA
330
1F
100
AcDbEntity
  8
0
  6
Continuous
 62
     7
370
    25
100
AcDbLine
 10
223.575733867
 20
76.6754170122
 30
0.0
 11
224.5947802419
 21
76.6754170122
 31
0.0
  0
LINE
  5
EB
330
1F
100
AcDbEntity
  8
0
  6
Continuous
 62
     7
370
    25
100
AcDbLine
 10
278.6681974138
 20
158.6754170122
 30
0.0
 11
223.575733867
 21
158.6754170122
 31
0.0
  0
LINE
  5
EC
330
1F
100
AcDbEntity
  8
0
  6
Continuous
 62
     7
370
    25
100
AcDbLine
 10
224.575733867
 20
76.6786559386
 30
0.0
 11
224.575733867
 21
61.1754170122
 31
0.0
  0
LINE
  5
ED
330
1F
100
AcDbEntity
  8
0
  6
Continuous
 62
     7
370
    25
100
AcDbLine
 10
238.575733867
 20
61.1754170122
 30
0.0
 11
238.575733867
 21
76.6754170122
 31
0.0
  0
LINE
  5
EE
330
1F
100
AcDbEntity
  8
0
  6
Continuous
 62
     7
370
    25
100
AcDbLine
 10
333.575733867
 20
68.6782960017
 30
0.0
 11
333.575733867
 21
47.1754170122
 31
0.0
  0
LINE
  5
EF
330
1F
100
AcDbEntity
  8
0
  6
Continuous
 62
     7
370
    25
100
AcDbLine
 10
347.575733867
 20
47.1754170122
 30
0.0
 11
347.575733867
 21
68.6754170122
 31
0.0
  0
LINE
  5
F0
330
1F
100
AcDbEntity
  8
0
  6
Continuous
 62
     7
370
    25
100
AcDbLine
 10
348.575733867
 20
117.6754170122
 30
0.0
 11
348.575733867
 21
166.6754170122
 31
0.0
  0
LINE
  5
F1
330
1F
100
AcDbEntity
  8
0
  6
Continuous
 62
     7
370
    25
100
AcDbLine
 10
348.575733867
 20
68.6754170122
 30
0.0
 11
348.575733867
 21
117.6754170122
 31
0.0
  0
SPLINE
  5
F2
330
1F
100
AcDbEntity
  8
0
  6
Continuous
 62
     7
370
    25
100
AcDbSpline
210
0.0
220
0.0
230
1.0
 70
     8
 71
     3
 72
    26
 73
    22
 74
     0
 42
0.00000001
 43
0.00000001
 40
0.0
 40
0.0
 40
0.0
 40
0.0
 40
0.0525578500410527
 40
0.1066492943464174
 40
0.159204489147609
 40
0.2132658436393502
 40
0.2661507959796494
 40
0.320555243231674
 40
0.3736587293877274
 40
0.4283221936621997
 40
0.4810599886209371
 40
0.5353504647628914
 40
0.587708118350031
 40
0.641574467418512
 40
0.6941301939222334
 40
0.7481831968983448
 40
0.8012046388454401
 40
0.8557611476551684
 40
0.908793852363767
 40
0.9633906822503561
 40
1.0
 40
1.0
 40
1.0
 40
1.0
 10
347.5757338670014
 20
68.67541701223783
 30
0.0
 10
347.5572472046476
 20
68.67807540745868
 30
0.0
 10
347.5197344545388
 20
68.68346976765751
 30
0.0
 10
347.2180974052238
 20
68.72573234894686
 30
0.0
 10
346.7413659527202
 20
68.78867690816323
 30
0.0
 10
346.0928491529907
 20
68.86699094252549
 30
0.0
 10
345.2825717776487
 20
68.95272061577805
 30
0.0
 10
344.3437364121708
 20
69.03525868869713
 30
0.0
 10
343.2866539836703
 20
69.1064026638398
 30
0.0
 10
342.1619425439176
 20
69.156659868952
 30
0.0
 10
340.9834488059826
 20
69.18108112686922
 30
0.0
 10
339.8094892407337
 20
69.1766629567541
 30
0.0
 10
338.6499307722246
 20
69.1441494593964
 30
0.0
 10
337.556665808834
 20
69.0879514233395
 30
0.0
 10
336.5377037122832
 20
69.01333462455214
 30
0.0
 10
335.636628982216
 20
68.92950847088356
 30
0.0
 10
334.8649498287205
 20
68.84453656666165
 30
0.0
 10
334.257061707598
 20
68.76897187413442
 30
0.0
 10
333.8310493418411
 20
68.71161902589772
 30
0.0
 10
333.599432661179
 20
68.67881493323496
 30
0.0
 10
333.596952659992
 20
68.67844676351515
 30
0.0
 10
333.5959572100818
 20
68.6782989835397
 30
0.0
  0
SPLINE
  5
F3
330
1F
100
AcDbEntity
  8
0
  6
Continuous
 62
     7
370
    25
100
AcDbSpline
210
0.0
220
0.0
230
1.0
 70
     8
 71
     3
 72
    26
 73
    22
 74
     0
 42
0.00000001
 43
0.00000001
 40
0.0
 40
0.0
 40
0.0
 40
0.0
 40
0.0524008930785607
 40
0.1063347793202164
 40
0.1587319280945217
 40
0.2126233676407124
 40
0.2654865094329508
 40
0.3198621837031648
 40
0.3730434634748824
 40
0.4277954446697286
 40
0.4804572158561058
 40
0.5346799269527537
 40
0.5867931136745507
 40
0.6404041054990451
 40
0.6927946766947174
 40
0.7466663745685557
 40
0.7997242623701538
 40
0.8543166341449192
 40
0.9074001288625082
 40
0.9620603621519859
 40
1.0
 40
1.0
 40
1.0
 40
1.0
 10
238.5757338670014
 20
76.6754170122378
 30
0.0
 10
238.5573354578906
 20
76.6785786631164
 30
0.0
 10
238.5200003924423
 20
76.68499445927388
 30
0.0
 10
238.2198715133983
 20
76.73526421896054
 30
0.0
 10
237.7457611352947
 20
76.81015716034675
 30
0.0
 10
237.100535100549
 20
76.90348981752926
 30
0.0
 10
236.2935904940934
 20
77.00592488952705
 30
0.0
 10
235.3566782754762
 20
77.10492791123912
 30
0.0
 10
234.3001538807861
 20
77.19057292015793
 30
0.0
 10
233.1753050982977
 20
77.25125980927903
 30
0.0
 10
231.9969644200939
 20
77.28095406277721
 30
0.0
 10
230.8251062469295
 20
77.27606715740643
 30
0.0
 10
229.6686545190525
 20
77.23761809870297
 30
0.0
 10
228.5786429348043
 20
77.17094815714344
 30
0.0
 10
227.5615845501323
 20
77.08222268504599
 30
0.0
 10
226.65948930208
 20
76.98219889785926
 30
0.0
 10
225.8844673874984
 20
76.88042751702552
 30
0.0
 10
225.2716069564676
 20
76.78953278657484
 30
0.0
 10
224.8397472276196
 20
76.72013223706507
 30
0.0
 10
224.6020650819883
 20
76.67992974189815
 30
0.0
 10
224.5968974874351
 20
76.6790291987696
 30
0.0
 10
224.5947802418765
 20
76.67866023194767
 30
0.0
  0
LINE
  5
F4
330
1F
100
AcDbEntity
  8
0
  6
Continuous
 62
     7
370
    25
100
AcDbLine
 10
223.575733867
 20
117.6754170122
 30
0.0
 11
223.575733867
 21
158.6754170122
 31
0.0
  0
LINE
  5
F5
330
1F
100
AcDbEntity
  8
0
  6
Continuous
 62
     7
370
    25
100
AcDbLine
 10
223.575733867
 20
76.6754170122
 30
0.0
 11
223.575733867
 21
117.6754170122
 31
0.0
  0
LINE
  5
F6
330
1F
100
AcDbEntity
  8
0
  6
Continuous
 62
     7
370
    25
100
AcDbLine
 10
224.575733867
 20
61.1754170122
 30
0.0
 11
238.575733867
 21
61.1754170122
 31
0.0
  0
LINE
  5
F7
330
1F
100
AcDbEntity
  8
0
  6
Continuous
 62
     7
370
    25
100
AcDbLine
 10
333.575733867
 20
47.1754170122
 30
0.0
 11
347.575733867
 21
47.1754170122
 31
0.0
  0
LINE
  5
F8
330
1F
100
AcDbEntity
  8
0
  6
Continuous
 62
     1
370
    25
100
AcDbLine
 10
287.4832703202
 20
117.6754170122
 30
0.0
 11
287.4832703202
 21
166.6754170122
 31
0.0
  0
LINE
  5
F9
330
1F
100
AcDbEntity
  8
0
  6
Continuous
 62
     1
370
    25
100
AcDbLine
 10
287.4832703202
 20
68.6754170122
 30
0.0
 11
287.4832703202
 21
117.6754170122
 31
0.0
  0
LINE
  5
FA
330
1F
100
AcDbEntity
  8
0
  6
Continuous
 62
     1
370
    25
100
AcDbLine
 10
285.9781169308
 20
117.6754170122
 30
0.0
 11
285.9781169308
 21
165.992426228
 31
0.0
  0
LINE
  5
FB
330
1F
100
AcDbEntity
  8
0
  6
Continuous
 62
     1
370
    25
100
AcDbLine
 10
285.9781169308
 20
69.3584077965
 30
0.0
 11
285.9781169308
 21
117.6754170122
 31
0.0
  0
LINE
  5
FC
330
1F
100
AcDbEntity
  8
0
  6
Continuous
 62
     1
370
    25
100
AcDbLine
 10
280.1733508032
 20
117.6754170122
 30
0.0
 11
280.1733508032
 21
159.3584077965
 31
0.0
  0
LINE
  5
FD
330
1F
100
AcDbEntity
  8
0
  6
Continuous
 62
     1
370
    25
100
AcDbLine
 10
280.1733508032
 20
75.992426228
 30
0.0
 11
280.1733508032
 21
117.6754170122
 31
0.0
  0
LINE
  5
FE
330
1F
100
AcDbEntity
  8
0
  6
Continuous
 62
     1
370
    25
100
AcDbLine
 10
278.6681974138
 20
117.6754170122
 30
0.0
 11
278.6681974138
 21
158.6754170122
 31
0.0
  0
LINE
  5
FF
330
1F
100
AcDbEntity
  8
0
  6
Continuous
 62
     1
370
    25
100
AcDbLine
 10
278.6681974138
 20
76.6754170122
 30
0.0
 11
278.6681974138
 21
117.6754170122
 31
0.0
  0
LINE
  5
100
330
1F
100
AcDbEntity
  8
0
  6
Continuous
 62
     7
370
    25
100
AcDbLine
 10
87.1701403815
 20
-34.8166517229
 30
0.0
 11
87.1701403815
 21
-95.9091152697
 31
0.0
  0
LINE
  5
101
330
1F
100
AcDbEntity
  8
0
  6
Continuous
 62
     7
370
    25
100
AcDbLine
 10
185.1701403815
 20
-95.9091152697
 30
0.0
 11
185.1701403815
 21
-34.8166517229
 31
0.0
  0
ARC
  5
102
330
1F
100
AcDbEntity
  8
0
  6
Continuous
 62
     7
370
    25
100
AcDbCircle
 10
89.1701403815
 20
-34.8166517229
 30
0.0
 40
2.000000000000014
100
AcDbArc
 50
131.1859251657
 51
180.0
  0
ARC
  5
103
330
1F
100
AcDbEntity
  8
0
  6
Continuous
 62
     7
370
    25
100
AcDbCircle
 10
183.1701403815
 20
-34.8166517229
 30
0.0
 40
2.000000000000028
100
AcDbArc
 50
0.0
 51
48.8140748343
  0
LINE
  5
104
330
1F
100
AcDbEntity
  8
0
  6
Continuous
 62
     7
370
    25
100
AcDbLine
 10
184.4871495972
 20
-33.3114983335
 30
0.0
 11
177.8531311658
 21
-27.5067322059
 31
0.0
  0
LINE
  5
105
330
1F
100
AcDbEntity
  8
0
  6
Continuous
 62
     7
370
    25
100
AcDbLine
 10
94.4871495972
 20
-27.5067322059
 30
0.0
 11
87.8531311658
 21
-33.3114983335
 31
0.0
  0
ARC
  5
106
330
1F
100
AcDbEntity
  8
0
  6
Continuous
 62
     7
370
    25
100
AcDbCircle
 10
93.1701403815
 20
-26.0015788165
 30
0.0
 40
2.000000000000006
100
AcDbArc
 50
311.1859251657
 51
0.0
  0
ARC
  5
107
330
1F
100
AcDbEntity
  8
0
  6
Continuous
 62
     7
370
    25
100
AcDbCircle
 10
179.1701403815
 20
-26.0015788165
 30
0.0
 40
2.000000000000006
100
AcDbArc
 50
180.0
 51
228.8140748343
  0
LINE
  5
108
330
1F
100
AcDbEntity
  8
0
  6
Continuous
 62
     7
370
    25
100
AcDbLine
 10
95.1701403815
 20
29.0908847303
 30
0.0
 11
95.1701403815
 21
-26.0015788165
 31
0.0
  0
LINE
  5
109
330
1F
100
AcDbEntity
  8
0
  6
Continuous
 62
     7
370
    25
100
AcDbLine
 10
177.1701403815
 20
-26.0015788165
 30
0.0
 11
177.1701403815
 21
29.0908847303
 31
0.0
  0
LINE
  5
10A
330
1F
100
AcDbEntity
  8
0
  6
Continuous
 62
     7
370
    25
100
AcDbLine
 10
87.1701403815
 20
-95.9091152697
 30
0.0
 11
185.1701403815
 21
-95.9091152697
 31
0.0
  0
LINE
  5
10B
330
1F
100
AcDbEntity
  8
0
  6
Continuous
 62
     7
370
    25
100
AcDbLine
 10
95.1701403815
 20
29.0908847303
 30
0.0
 11
177.1701403815
 21
29.0908847303
 31
0.0
  0
LINE
  5
10C
330
1F
100
AcDbEntity
  8
0
  6
Continuous
 62
     1
370
    25
100
AcDbLine
 10
87.1701403815
 20
-34.8166517229
 30
0.0
 11
185.1701403815
 21
-34.8166517229
 31
0.0
  0
LINE
  5
10D
330
1F
100
AcDbEntity
  8
0
  6
Continuous
 62
     1
370
    25
100
AcDbLine
 10
87.8531311658
 20
-33.3114983335
 30
0.0
 11
184.4871495972
 21
-33.3114983335
 31
0.0
  0
LINE
  5
10E
330
1F
100
AcDbEntity
  8
0
  6
Continuous
 62
     1
370
    25
100
AcDbLine
 10
94.4871495972
 20
-27.5067322059
 30
0.0
 11
177.8531311658
 21
-27.5067322059
 31
0.0
  0
LINE
  5
10F
330
1F
100
AcDbEntity
  8
0
  6
Continuous
 62
     1
370
    25
100
AcDbLine
 10
95.1701403815
 20
-26.0015788165
 30
0.0
 11
177.1701403815
 21
-26.0015788165
 31
0.0
  0
LINE
  5
110
330
1F
100
AcDbEntity
  8
0
  6
Continuous
 62
     7
370
    25
100
AcDbLine
 10
313.8226487708
 20
7.3140666069
 30
0.0
 11
270.6237535174
 21
32.2522580124
 31
0.0
  0
LINE
  5
111
330
1F
100
AcDbEntity
  8
0
  6
Continuous
 62
     7
370
    25
100
AcDbLine
 10
221.6277356183
 20
-52.6205305009
 30
0.0
 11
244.7825988173
 21
-65.9875485008
 31
0.0
  0
LINE
  5
112
330
1F
100
AcDbEntity
  8
0
  6
Continuous
 62
     7
370
    25
100
AcDbLine
 10
257.5130648513
 20
-73.3366901113
 30
0.0
 11
264.8266308716
 21
-77.5587219064
 31
0.0
  0
LINE
  5
113
330
1F
100
AcDbEntity
  8
0
  6
Continuous
 62
     7
370
    25
100
AcDbLine
 10
244.7825988173
 20
-53.2554886884
 30
0.0
 11
244.7825988173
 21
-71.0158959295
 31
0.0
  0
LINE
  5
114
330
1F
100
AcDbEntity
  8
0
  6
Continuous
 62
     7
370
    25
100
AcDbLine
 10
258.7825988173
 20
-71.0158959295
 30
0.0
 11
258.7825988173
 21
-53.2556661719
 31
0.0
  0
SPLINE
  5
115
330
1F
100
AcDbEntity
  8
0
  6
Continuous
 62
     7
370
    25
100
AcDbSpline
210
0.0
220
0.0
230
1.0
 70
     8
 71
     3
 72
    24
 73
    20
 74
     0
 42
0.00000001
 43
0.00000001
 40
0.0
 40
0.0
 40
0.0
 40
0.0
 40
0.0213898562157654
 40
0.0842731943517398
 40
0.1471755270930782
 40
0.2100794824897636
 40
0.2729614396197403
 40
0.3357932937333984
 40
0.3985398711993461
 40
0.4611593677038564
 40
0.5236050340279758
 40
0.5858284613510087
 40
0.6477845529461915
 40
0.7094378015963528
 40
0.770768936134515
 40
0.8317805858708047
 40
0.8925005752136924
 40
0.9529818834243724
 40
1.0
 40
1.0
 40
1.0
 40
1.0
 10
324.5424837831243
 20
-16.69813982020876
 30
0.0
 10
324.5489939011857
 20
-16.46357387147183
 30
0.0
 10
324.5746429022407
 20
-15.53941516807492
 30
0.0
 10
324.5274376351896
 20
-13.97219500226231
 30
0.0
 10
324.3998207080163
 20
-12.00279679002933
 30
0.0
 10
324.1756386751514
 20
-10.09245260243689
 30
0.0
 10
323.8628108520933
 20
-8.242418361835021
 30
0.0
 10
323.4596010007869
 20
-6.45886768537781
 30
0.0
 10
322.9672728851758
 20
-4.746614462923869
 30
0.0
 10
322.3867700750766
 20
-3.110778367645069
 30
0.0
 10
321.7196688125605
 20
-1.556277604540919
 30
0.0
 10
320.9679751471569
 20
-0.0878500568114449
 30
0.0
 10
320.1341695192763
 20
1.290052954887731
 30
0.0
 10
319.2212263529163
 20
2.573510115502414
 30
0.0
 10
318.2322351144921
 20
3.758727706166795
 30
0.0
 10
317.1713580370142
 20
4.843956691837834
 30
0.0
 10
316.039655093101
 20
5.822588947956474
 30
0.0
 10
314.9370540192358
 20
6.643748833237699
 30
0.0
 10
314.1836762773514
 20
7.088924392039911
 30
0.0
 10
313.8541637933189
 20
7.283635353163572
 30
0.0
  0
SPLINE
  5
116
330
1F
100
AcDbEntity
  8
0
  6
Continuous
 62
     7
370
    25
100
AcDbSpline
210
0.0
220
0.0
230
1.0
 70
     8
 71
     3
 72
    24
 73
    20
 74
     0
 42
0.00000001
 43
0.00000001
 40
0.0
 40
0.0
 40
0.0
 40
0.0
 40
0.0372366007570592
 40
0.0973979051406898
 40
0.1576015602257926
 40
0.2179380881504322
 40
0.2784841744142135
 40
0.3392962841333081
 40
0.4004071438189111
 40
0.4618254240164841
 40
0.5235384037058387
 40
0.5855168490873235
 40
0.6477209801204609
 40
0.7101063573821561
 40
0.7726287904586785
 40
0.8352478054611642
 40
0.8979286318796736
 40
0.9606429544678124
 40
1.0
 40
1.0
 40
1.0
 40
1.0
 10
264.9999733931895
 20
-77.64090582071711
 30
0.0
 10
265.263852341034
 20
-77.79077664395226
 30
0.0
 10
265.9540672427235
 20
-78.18278622399022
 30
0.0
 10
267.1369989278008
 20
-78.69613262447645
 30
0.0
 10
268.5364449709237
 20
-79.19177218916332
 30
0.0
 10
269.9892995765105
 20
-79.57249272920339
 30
0.0
 10
271.4894535476354
 20
-79.84316352696183
 30
0.0
 10
273.0347829908671
 20
-80.0013212943614
 30
0.0
 10
274.6217572869771
 20
-80.04654550435039
 30
0.0
 10
276.2467795244238
 20
-79.97807199069823
 30
0.0
 10
277.9057871444578
 20
-79.79558360901044
 30
0.0
 10
279.5943969746631
 20
-79.49913803000138
 30
0.0
 10
281.3079583578291
 20
-79.08923342353287
 30
0.0
 10
283.0416735523641
 20
-78.56697373675689
 30
0.0
 10
284.7906579753982
 20
-77.93344423051585
 30
0.0
 10
286.550161284636
 20
-77.19193988091291
 30
0.0
 10
288.3150983134125
 20
-76.33940590850591
 30
0.0
 10
289.8625424620315
 20
-75.51509175244098
 30
0.0
 10
290.817961387894
 20
-74.93396646035957
 30
0.0
 10
291.1863552564189
 20
-74.70989407844156
 30
0.0
  0
LINE
  5
117
330
1F
100
AcDbEntity
  8
0
  6
Continuous
 62
     7
370
    25
100
AcDbLine
 10
295.6887462895
 20
-71.6524702376
 30
0.0
 11
299.0656627174
 21
-69.0907000122
 31
0.0
  0
LINE
  5
118
330
1F
100
AcDbEntity
  8
0
  6
Continuous
 62
     7
370
    25
100
AcDbLine
 10
323.6118223605
 20
-26.5708972704
 30
0.0
 11
324.1415276128
 21
-22.3654670195
 31
0.0
  0
LINE
  5
119
330
1F
100
AcDbEntity
  8
0
  6
Continuous
 62
     7
370
    25
100
AcDbLine
 10
355.0124262352
 20
-25.7016398756
 30
0.0
 11
323.7066147122
 21
-7.6291795665
 31
0.0
  0
LINE
  5
11A
330
1F
100
AcDbEntity
  8
0
  6
Continuous
 62
     7
370
    25
100
AcDbLine
 10
282.7144754134
 20
-78.6478006672
 30
0.0
 11
314.0157581971
 21
-96.7176465908
 31
0.0
  0
LINE
  5
11B
330
1F
100
AcDbEntity
  8
0
  6
Continuous
 62
     7
370
    25
100
AcDbLine
 10
321.8572379667
 20
-91.1771638704
 30
0.0
 11
321.8572379667
 21
-104.0785666575
 31
0.0
  0
LINE
  5
11C
330
1F
100
AcDbEntity
  8
0
  6
Continuous
 62
     7
370
    25
100
AcDbLine
 10
335.8572379667
 20
-104.0785666575
 30
0.0
 11
335.8572379667
 21
-91.1773480477
 31
0.0
  0
LINE
  5
11D
330
1F
100
AcDbEntity
  8
0
  6
Continuous
 62
     7
370
    25
100
AcDbLine
 10
313.8226487708
 20
7.3140666069
 30
0.0
 11
313.8566315149
 21
7.2943942933
 31
0.0
  0
LINE
  5
11E
330
1F
100
AcDbEntity
  8
0
  6
Continuous
 62
     7
370
    25
100
AcDbLine
 10
264.9802639702
 20
-77.6463070947
 30
0.0
 11
264.8266308716
 21
-77.5587219064
 31
0.0
  0
LWPOLYLINE
  5
11F
330
1F
100
AcDbEntity
  8
0
  6
Continuous
 62
     7
370
    25
100
AcDbPolyline
 90
      120
 70
   128
 43
0.0
 10
211.4775122897
 20
-30.186134984
 10
211.5257977086
 20
-28.0466923901
 10
211.6705193851
 20
-25.8574636485
 10
211.911273954
 20
-23.6245505322
 10
212.2473903891
 20
-21.3541765708
 10
212.6779318736
 20
-19.0526697035
 10
213.2016984112
 20
-16.7264446428
 10
213.8172301705
 20
-14.3819849952
 10
214.5228115543
 20
-12.0258251903
 10
215.3164759806
 20
-9.6645322679
 10
216.1960113642
 20
-7.304687575
 10
217.1589662825
 20
-4.952868422
 10
218.2026568071
 20
-2.6156297507
 10
219.3241739856
 20
-0.2994858644
 10
220.5203919484
 20
1.9891077284
 10
221.7879766214
 20
4.2437723069
 10
223.1233950188
 20
6.4582237164
 10
224.52292509
 20
8.6262898839
 10
225.9826660937
 20
10.74192802
 10
227.49854947
 20
12.7992414617
 10
229.0663501799
 20
14.7924961075
 10
230.6816984816
 20
16.7161363992
 10
232.3400921098
 20
18.5648008063
 10
234.036908824
 20
20.3333367696
 10
235.7674192916
 20
22.016815062
 10
237.5268002696
 20
23.6105435277
 10
239.3101480476
 20
25.1100801595
 10
241.1124921155
 20
26.51124548
 10
242.9288090172
 20
27.81013419
 10
244.7540363517
 20
29.0031260538
 10
246.583086883
 20
30.086895989
 10
248.4108627192
 20
31.0584233346
 10
250.2322695213
 20
31.9150002694
 10
252.0422307018
 20
32.65423936
 10
253.8357015743
 20
33.2740802145
 10
255.6076834138
 20
33.7727952251
 10
257.3532373891
 20
34.1489943837
 10
259.0674983281
 20
34.4016291559
 10
260.7456882782
 20
34.5299954031
 10
262.383129823
 20
34.5337353456
 10
263.9752591193
 20
34.4128385595
 10
265.517638617
 20
34.1676420059
 10
267.005969428
 20
33.7988290915
 10
268.4361033072
 20
33.307427764
 10
269.8040542152
 20
32.6948076472
 10
271.1060094272
 20
31.9626762231
 10
272.3383401608
 20
31.1130740733
 10
273.497611689
 20
30.1483691914
 10
274.5805929142
 20
29.071250383
 10
275.5842653735
 20
27.8847197713
 10
276.5058316517
 20
26.5920844299
 10
277.3427231783
 20
25.1969471655
 10
278.0926073866
 20
23.7031964758
 10
278.7533942147
 20
22.1149957118
 10
279.3232419312
 20
20.4367714741
 10
279.8005622684
 20
18.6732012744
 10
280.1840248489
 20
16.8292004993
 10
280.4725608936
 20
14.9099087097
 10
280.6653662009
 20
12.920675316
 10
280.7619033877
 20
10.8670446685
 10
280.7619033877
 20
8.7547406041
 10
280.6653662009
 20
6.5896504931
 10
280.4725608936
 20
4.3778088299
 10
280.1840248489
 20
2.1253804141
 10
279.8005622684
 20
-0.1613568325
 10
279.3232419312
 20
-2.4760293629
 10
278.7533942147
 20
-4.8121857697
 10
278.0926073866
 20
-7.163314766
 10
277.3427231783
 20
-9.5228633336
 10
276.5058316517
 20
-11.8842549874
 10
275.5842653735
 20
-14.2409081053
 10
274.5805929142
 20
-16.5862542724
 10
273.497611689
 20
-18.9137565883
 10
272.3383401608
 20
-21.2169278865
 10
271.1060094272
 20
-23.4893488157
 10
269.8040542152
 20
-25.7246857311
 10
268.4361033072
 20
-27.9167083477
 10
267.005969428
 20
-30.0593071054
 10
265.517638617
 20
-32.1465101972
 10
263.9752591193
 20
-34.1725002137
 10
262.383129823
 20
-36.1316303573
 10
260.7456882782
 20
-38.0184401809
 10
259.0674983281
 20
-39.8276708072
 10
257.3532373891
 20
-41.5542795859
 10
255.6076834138
 20
-43.1934541487
 10
253.8357015743
 20
-44.740625822
 10
252.0422307018
 20
-46.1914823609
 10
250.2322695213
 20
-47.541979968
 10
248.4108627192
 20
-48.7883545642
 10
246.583086883
 20
-49.9271322801
 10
244.7540363517
 20
-50.9551391379
 10
242.9288090172
 20
-51.869509898
 10
241.1124921155
 20
-52.6676960452
 10
239.3101480476
 20
-53.3474728914
 10
237.5268002696
 20
-53.9069457769
 10
235.7674192916
 20
-54.3445553501
 10
234.036908824
 20
-54.6590819149
 10
232.3400921098
 20
-54.8496488291
 10
230.6816984816
 20
-54.9157249487
 10
229.0663501799
 20
-54.8571261077
 10
227.49854947
 20
-54.6740156315
 10
225.9826660937
 20
-54.3669038819
 10
224.52292509
 20
-53.9366468344
 10
223.1233950188
 20
-53.3844436926
 10
221.7879766214
 20
-52.7118335456
 10
220.5203919484
 20
-51.9206910787
 10
219.3241739856
 20
-51.0132213476
 10
218.2026568071
 20
-49.9919536334
 10
217.1589662825
 20
-48.8597343923
 10
216.1960113642
 20
-47.6197193225
 10
215.3164759806
 20
-46.2753645683
 10
214.5228115543
 20
-44.8304170875
 10
213.8172301705
 20
-43.288904208
 10
213.2016984112
 20
-41.6551224026
 10
212.6779318736
 20
-39.9336253142
 10
212.2473903891
 20
-38.129211064
 10
211.911273954
 20
-36.2469088781
 10
211.6705193851
 20
-34.2919650704
 10
211.5257977086
 20
-32.2698284198
 10
211.4775122897
 20
-30.186134984
  0
SPLINE
  5
120
330
1F
100
AcDbEntity
  8
0
  6
Continuous
 62
     7
370
    25
100
AcDbSpline
210
0.0
220
0.0
230
1.0
 70
     8
 71
     3
 72
    12
 73
     8
 74
     0
 42
0.00000001
 43
0.00000001
 40
0.0
 40
0.0
 40
0.0
 40
0.0
 40
0.2132808587909447
 40
0.4265677840069619
 40
0.6397825553423157
 40
0.853006133457368
 40
1.0
 40
1.0
 40
1.0
 40
1.0
 10
246.8328513490357
 20
-50.60284008260893
 30
0.0
 10
246.5699781388153
 20
-50.76817375984196
 30
0.0
 10
246.0442242413763
 20
-51.098845816954
 30
0.0
 10
245.4498866192715
 20
-51.65362129378117
 30
0.0
 10
245.0341652879875
 20
-52.23528723822797
 30
0.0
 10
244.8053449351259
 20
-52.77418997056066
 30
0.0
 10
244.8047009156519
 20
-53.1162780341354
 30
0.0
 10
244.8044381107434
 20
-53.25587384746621
 30
0.0
  0
SPLINE
  5
121
330
1F
100
AcDbEntity
  8
0
  6
Continuous
 62
     7
370
    25
100
AcDbSpline
210
0.0
220
0.0
230
1.0
 70
     8
 71
     3
 72
    21
 73
    17
 74
     0
 42
0.00000001
 43
0.00000001
 40
0.0
 40
0.0
 40
0.0
 40
0.0
 40
0.0443070046381037
 40
0.1161410684555712
 40
0.1879721081096388
 40
0.259566310168771
 40
0.331158290832971
 40
0.4020967206322889
 40
0.4730371695469755
 40
0.5439323104694185
 40
0.6148304175987097
 40
0.68635534264747
 40
0.7578796284633988
 40
0.8297316927918167
 40
0.9015803781649414
 40
1.0
 40
1.0
 40
1.0
 40
1.0
 10
258.7590261559877
 20
-53.25593534671907
 30
0.0
 10
258.7609976105051
 20
-53.10114605674001
 30
0.0
 10
258.7661653449511
 20
-52.69539997504286
 30
0.0
 10
258.5484548226809
 20
-52.05132635922044
 30
0.0
 10
258.1411917666342
 20
-51.35529419541795
 30
0.0
 10
257.5407424208109
 20
-50.72908314175762
 30
0.0
 10
256.784763161431
 20
-50.19114046679702
 30
0.0
 10
255.8867588376313
 20
-49.7613824017616
 30
0.0
 10
254.8801406160576
 20
-49.44455550700523
 30
0.0
 10
253.7865560745194
 20
-49.25070840612936
 30
0.0
 10
252.636094876677
 20
-49.17483864479743
 30
0.0
 10
251.4583903969457
 20
-49.21988730585965
 30
0.0
 10
250.2834466673308
 20
-49.37504673677608
 30
0.0
 10
249.1522634853445
 20
-49.63669689056668
 30
0.0
 10
247.9490007046762
 20
-50.02649824364555
 30
0.0
 10
247.2416936736044
 20
-50.39172771131454
 30
0.0
 10
246.8328513490357
 20
-50.60284008260893
 30
0.0
  0
LWPOLYLINE
  5
122
330
1F
100
AcDbEntity
  8
0
  6
Continuous
 62
     7
370
    25
100
AcDbPolyline
 90
      105
 70
   128
 43
0.0
 10
219.6092402734
 20
-25.491788341
 10
219.6576181976
 20
-23.6150538358
 10
219.8025754446
 20
-21.6893113689
 10
220.0435830811
 20
-19.7215877656
 10
220.3797616964
 20
-17.719063036
 10
220.809884611
 20
-15.6890441757
 10
221.3323823533
 20
-13.6389385034
 10
221.9453483855
 20
-11.5762266323
 10
222.646546061
 20
-9.5084351743
 10
223.4334167857
 20
-7.4431092762
 10
224.3030893536
 20
-5.3877850883
 10
225.2523904237
 20
-3.3499622657
 10
226.2778560995
 20
-1.3370766027
 10
227.3757445678
 20
0.6435270991
 10
228.5420497528
 20
2.5846218316
 10
229.7725159333
 20
4.4791247505
 10
231.0626532716
 20
6.3201230203
 10
232.4077541965
 20
8.1008990379
 10
233.8029105806
 20
9.8149549446
 10
235.2430316495
 20
11.4560363365
 10
236.7228625577
 20
13.0181550854
 10
238.2370035627
 20
14.4956111895
 10
239.779929728
 20
15.8830135716
 10
241.3460110836
 20
17.1752997509
 10
242.9295331682
 20
18.3677543153
 10
244.5247178817
 20
19.4560261274
 10
246.1257445678
 20
20.4361442014
 10
247.726771254
 20
21.3045321927
 10
249.3219559675
 20
22.0580214478
 10
250.9054780521
 20
22.6938625659
 10
252.4715594077
 20
23.209735432
 10
254.014485573
 20
23.6037576817
 10
255.528626578
 20
23.8744915707
 10
257.0084574862
 20
24.0209492203
 10
258.4485785551
 20
24.0425962225
 10
259.8437349392
 20
23.9393535897
 10
261.1888358641
 20
23.711598043
 10
262.4789732024
 20
23.3601606378
 10
263.7094393829
 20
22.8863237311
 10
264.8757445678
 20
22.2918163023
 10
265.9736330362
 20
21.5788076446
 10
266.999098712
 20
20.7498994492
 10
267.9483997821
 20
19.8081163122
 10
268.81807235
 20
18.7568946982
 10
269.6049430747
 20
17.6000704009
 10
270.3061407502
 20
16.3418645466
 10
270.9191067824
 20
14.9868681921
 10
271.4416045247
 20
13.5400255722
 10
271.8717274393
 20
12.0066160585
 10
272.2079060546
 20
10.3922348962
 10
272.4489136911
 20
8.7027727871
 10
272.5938709381
 20
6.9443943951
 10
272.6422488623
 20
5.1235158524
 10
272.5938709381
 20
3.2467813472
 10
272.4489136911
 20
1.3210388803
 10
272.2079060546
 20
-0.646684723
 10
271.8717274393
 20
-2.6492094526
 10
271.4416045247
 20
-4.6792283128
 10
270.9191067824
 20
-6.7293339852
 10
270.3061407502
 20
-8.7920458563
 10
269.6049430747
 20
-10.8598373143
 10
268.81807235
 20
-12.9251632123
 10
267.9483997821
 20
-14.9804874003
 10
266.999098712
 20
-17.0183102229
 10
265.9736330362
 20
-19.0311958859
 10
264.8757445678
 20
-21.0117995877
 10
263.7094393829
 20
-22.9528943202
 10
262.4789732024
 20
-24.8473972391
 10
261.1888358641
 20
-26.6883955089
 10
259.8437349392
 20
-28.4691715265
 10
258.4485785551
 20
-30.1832274332
 10
257.0084574862
 20
-31.8243088251
 10
255.528626578
 20
-33.386427574
 10
254.014485573
 20
-34.8638836781
 10
252.4715594077
 20
-36.2512860602
 10
250.9054780521
 20
-37.5435722395
 10
249.3219559675
 20
-38.7360268039
 10
247.726771254
 20
-39.824298616
 10
246.1257445678
 20
-40.80441669
 10
244.5247178817
 20
-41.6728046813
 10
242.9295331682
 20
-42.4262939364
 10
241.3460110836
 20
-43.0621350545
 10
239.779929728
 20
-43.5780079206
 10
238.2370035627
 20
-43.9720301703
 10
236.7228625577
 20
-44.2427640593
 10
235.2430316495
 20
-44.3892217089
 10
233.8029105806
 20
-44.4108687111
 10
232.4077541965
 20
-44.3076260782
 10
231.0626532716
 20
-44.0798705316
 10
229.7725159333
 20
-43.7284331264
 10
228.5420497528
 20
-43.2545962197
 10
227.3757445678
 20
-42.6600887909
 10
226.2778560995
 20
-41.9470801332
 10
225.2523904237
 20
-41.1181719378
 10
224.3030893536
 20
-40.1763888008
 10
223.4334167857
 20
-39.1251671868
 10
222.646546061
 20
-37.9683428895
 10
221.9453483854
 20
-36.7101370352
 10
221.3323823533
 20
-35.3551406807
 10
220.809884611
 20
-33.9082980607
 10
220.3797616964
 20
-32.3748885471
 10
220.0435830811
 20
-30.7605073848
 10
219.8025754446
 20
-29.0710452757
 10
219.6576181976
 20
-27.3126668837
 10
219.6092402734
 20
-25.491788341
  0
LWPOLYLINE
  5
123
330
1F
100
AcDbEntity
  8
0
  6
Continuous
 62
     7
370
    25
100
AcDbPolyline
 90
       46
 70
   128
 43
0.0
 10
246.832851349
 20
-68.1584675382
 10
247.5698936553
 20
-67.7885986648
 10
248.3889314756
 20
-67.4815454618
 10
249.2740231705
 20
-67.2432843703
 10
250.2079414369
 20
-67.0784528716
 10
251.1725086181
 20
-66.9902592232
 10
252.148950511
 20
-66.9804200142
 10
253.118261785
 20
-67.0491267536
 10
254.0615758985
 20
-67.1950421428
 10
254.9605323155
 20
-67.4153261049
 10
255.7976338718
 20
-67.705691063
 10
256.5565873378
 20
-68.0604853936
 10
257.2226205475
 20
-68.4728034285
 10
257.7827699223
 20
-68.9346198662
 10
258.2261327915
 20
-69.4369459751
 10
258.5440796014
 20
-69.9700045488
 10
258.7304218788
 20
-70.5234202085
 10
258.7815326834
 20
-71.086421348
 10
258.6964172015
 20
-71.6480497904
 10
258.4767321091
 20
-72.197374077
 10
258.1267533266
 20
-72.7237022354
 10
257.653292793
 20
-73.2167898866
 10
257.0655658789
 20
-73.6670396404
 10
256.3750120203
 20
-74.0656878975
 10
255.5950720624
 20
-74.4049754231
 10
254.7409266495
 20
-74.6782983713
 10
253.8292007504
 20
-74.8803368219
 10
252.8776400726
 20
-75.0071583263
 10
251.9047656624
 20
-75.0562944481
 10
250.9295134135
 20
-75.0267888087
 10
249.9708655016
 20
-74.9192157017
 10
249.0474809179
 20
-74.7356689152
 10
248.177332293
 20
-74.4797209788
 10
247.37735608
 20
-74.1563536279
 10
246.663122906
 20
-73.77186084
 10
246.0485345073
 20
-73.3337263301
 10
245.545553148
 20
-72.8504778879
 10
245.1639687881
 20
-72.3315213946
 10
244.9112085332
 20
-71.7869577482
 10
244.7921920741
 20
-71.2273862606
 10
244.8092359307
 20
-70.6636983543
 10
244.9620083638
 20
-70.1068655731
 10
245.2475358319
 20
-69.5677260338
 10
245.6602608674
 20
-69.0567734742
 10
246.192150247
 20
-68.5839530048
 10
246.832851349
 20
-68.1584675382
  0
LWPOLYLINE
  5
124
330
1F
100
AcDbEntity
  8
0
  6
Continuous
 62
     7
370
    25
100
AcDbPolyline
 90
       39
 70
   128
 43
0.0
 10
248.2470649114
 20
-68.97487565
 10
248.8772147403
 20
-68.6667716096
 10
249.5866158731
 20
-68.4227455571
 10
250.3559176961
 20
-68.2494538868
 10
251.164135661
 20
-68.1516235439
 10
251.9892236886
 20
-68.131923085
 10
252.8086755283
 20
-68.1908898874
 10
253.6001386702
 20
-68.3269154904
 10
254.3420240628
 20
-68.5362894702
 10
255.0140950066
 20
-68.8133006502
 10
255.5980191583
 20
-69.1503928878
 10
256.0778685892
 20
-69.5383711853
 10
256.4405542576
 20
-69.9666525063
 10
256.676183044
 20
-70.4235544526
 10
256.7783276093
 20
-70.8966139304
 10
256.744201716
 20
-71.3729271101
 10
256.5747362296
 20
-71.8395014099
 10
256.2745537268
 20
-72.2836098992
 10
255.8518424037
 20
-72.6931384561
 10
255.3181327233
 20
-73.0569162091
 10
254.6879828944
 20
-73.3650202494
 10
253.9785817616
 20
-73.609046302
 10
253.2092799386
 20
-73.7823379723
 10
252.4010619737
 20
-73.8801683152
 10
251.5759739461
 20
-73.899868774
 10
250.7565221064
 20
-73.8409019716
 10
249.9650589645
 20
-73.7048763686
 10
249.2231735719
 20
-73.4955023889
 10
248.551102628
 20
-73.2184912088
 10
247.9671784763
 20
-72.8813989713
 10
247.4873290455
 20
-72.4934206737
 10
247.1246433771
 20
-72.0651393528
 10
246.8890145907
 20
-71.6082374064
 10
246.7868700254
 20
-71.1351779287
 10
246.8209959187
 20
-70.658864749
 10
246.9904614051
 20
-70.1922904492
 10
247.2906439079
 20
-69.7481819599
 10
247.713355231
 20
-69.338653403
 10
248.2470649114
 20
-68.97487565
  0
ARC
  5
125
330
1F
100
AcDbEntity
  8
0
  6
Continuous
 62
     7
370
    25
100
AcDbCircle
 10
261.165184224
 20
-14.6544483209
 30
0.0
 40
63.41795137439411
100
AcDbArc
 50
338.0283696838
 51
358.0972396838
  0
ARC
  5
126
330
1F
100
AcDbEntity
  8
0
  6
Continuous
 62
     7
370
    25
100
AcDbCircle
 10
257.841087552
 20
-21.3562976768
 30
0.0
 40
62.92490485419965
100
AcDbArc
 50
302.0573050226
 51
321.9432032689
  0
ARC
  5
127
330
1F
100
AcDbEntity
  8
0
  6
Continuous
 62
     7
370
    25
100
AcDbCircle
 10
268.2807665215
 20
-19.3837301969
 30
0.0
 40
55.79588793812724
100
AcDbArc
 50
343.0000771361
 51
352.5990655582
  0
ARC
  5
128
330
1F
100
AcDbEntity
  8
0
  6
Continuous
 62
     7
370
    25
100
AcDbCircle
 10
265.4270936511
 20
-25.0661894962
 30
0.0
 40
55.40497139245389
100
AcDbArc
 50
307.3829855458
 51
316.5130876991
  0
LWPOLYLINE
  5
129
330
1F
100
AcDbEntity
  8
0
  6
Continuous
 62
     7
370
    25
100
AcDbPolyline
 90
       42
 70
   128
 43
0.0
 10
355.0124262352
 20
-25.7016398756
 10
355.1612712686
 20
-25.7888231172
 10
356.2994824151
 20
-26.5444020498
 10
357.3653246862
 20
-27.4151354274
 10
358.3552574612
 20
-28.3981307615
 10
359.2659922827
 20
-29.4901226402
 10
360.0945037815
 20
-30.6874835765
 10
360.8380397255
 20
-31.9862360576
 10
361.4941301632
 20
-33.3820657585
 10
362.0605956282
 20
-34.8703358733
 10
362.535554379
 20
-36.4461025183
 10
362.9174286505
 20
-38.1041311552
 10
363.2049498948
 20
-39.8389139796
 10
363.3971629952
 20
-41.6446882173
 10
363.4934294391
 20
-43.5154552681
 10
363.4934294391
 20
-45.4450006319
 10
363.3971629952
 20
-47.426914553
 10
363.2049498948
 20
-49.4546133127
 10
362.9174286505
 20
-51.5213610997
 10
362.535554379
 20
-53.6202923856
 10
362.0605956282
 20
-55.7444347318
 10
361.4941301632
 20
-57.886731951
 10
360.8380397255
 20
-60.0400675473
 10
360.0945037815
 20
-62.1972883565
 10
359.2659922827
 20
-64.3512283078
 10
358.3552574612
 20
-66.4947322295
 10
357.3653246862
 20
-68.620679617
 10
356.2994824151
 20
-70.722008287
 10
355.1612712686
 20
-72.7917378368
 10
353.9544722697
 20
-74.8229928332
 10
352.6830942833
 20
-76.8090256512
 10
351.3513606992
 20
-78.7432388896
 10
349.9636954024
 20
-80.6192072865
 10
348.5247080776
 20
-82.4306990636
 10
347.0391788959
 20
-84.1716966273
 10
345.5120426358
 20
-85.8364165588
 10
343.9483722904
 20
-87.419328826
 10
342.3533622154
 20
-88.9151751534
 10
340.7323108739
 20
-90.31898649
 10
339.0906032352
 20
-91.6260995157
 10
337.4336928873
 20
-92.8321721325
 10
335.8572379667
 20
-93.8764870809
  0
ARC
  5
12A
330
1F
100
AcDbEntity
  8
0
  6
Continuous
 62
     7
370
    25
100
AcDbCircle
 10
321.346123071
 20
-83.7361754521
 30
0.0
 40
14.90814683685194
100
AcDbArc
 50
240.5474926665
 51
271.9647288598
  0
SPLINE
  5
12B
330
1F
100
AcDbEntity
  8
0
  6
Continuous
 62
     7
370
    25
100
AcDbSpline
210
0.0
220
0.0
230
1.0
 70
     8
 71
     3
 72
    12
 73
     8
 74
     0
 42
0.00000001
 43
0.00000001
 40
0.0
 40
0.0
 40
0.0
 40
0.0
 40
0.2126502298543196
 40
0.4253090143517851
 40
0.6378659940757478
 40
0.8504354373401171
 40
1.0
 40
1.0
 40
1.0
 40
1.0
 10
323.9074904983695
 20
-88.5647556818605
 30
0.0
 10
323.6452153405763
 20
-88.7292313004722
 30
0.0
 10
323.1206544740002
 20
-89.05818915433657
 30
0.0
 10
322.5273253824982
 20
-89.60463878048546
 30
0.0
 10
322.1115470296891
 20
-90.17428660469615
 30
0.0
 10
321.8811400507713
 20
-90.70277139012111
 30
0.0
 10
321.8793200461121
 20
-91.03878759310227
 30
0.0
 10
321.8785683680138
 20
-91.1775652710429
 30
0.0
  0
SPLINE
  5
12C
330
1F
100
AcDbEntity
  8
0
  6
Continuous
 62
     7
370
    25
100
AcDbSpline
210
0.0
220
0.0
230
1.0
 70
     8
 71
     3
 72
    21
 73
    17
 74
     0
 42
0.00000001
 43
0.00000001
 40
0.0
 40
0.0
 40
0.0
 40
0.0
 40
0.0412072994949972
 40
0.113138239316154
 40
0.1850648952265874
 40
0.2566802971621532
 40
0.3282923670191982
 40
0.3989630544613459
 40
0.4696365194079535
 40
0.5402182046540118
 40
0.6108041374812457
 40
0.6822769188655211
 40
0.7537489505750952
 40
0.8257166898061694
 40
0.8976795839545726
 40
1.0
 40
1.0
 40
1.0
 40
1.0
 10
335.8329903736266
 20
-91.17752534101307
 30
0.0
 10
335.8361532674783
 20
-91.03105640522836
 30
0.0
 10
335.8448372687575
 20
-90.6289131511866
 30
0.0
 10
335.6362397487003
 20
-89.98274045321425
 30
0.0
 10
335.2371069744144
 20
-89.27298137426557
 30
0.0
 10
334.6431575263471
 20
-88.63588422085543
 30
0.0
 10
333.8938885245132
 20
-88.09148579697911
 30
0.0
 10
333.0029592911545
 20
-87.66002290632169
 30
0.0
 10
332.0046399868784
 20
-87.34534790110105
 30
0.0
 10
330.919248195945
 20
-87.15645374672454
 30
0.0
 10
329.7751484776315
 20
-87.08693768876113
 30
0.0
 10
328.6009205868409
 20
-87.139015347432
 30
0.0
 10
327.4251690582469
 20
-87.30124994428748
 30
0.0
 10
326.2900190859722
 20
-87.56881709647642
 30
0.0
 10
325.0601783410103
 20
-87.96967394401933
 30
0.0
 10
324.3338893080785
 20
-88.34462484044053
 30
0.0
 10
323.9074904983695
 20
-88.5647556818605
 30
0.0
  0
LWPOLYLINE
  5
12D
330
1F
100
AcDbEntity
  8
0
  6
Continuous
 62
     7
370
    25
100
AcDbPolyline
 90
       46
 70
   128
 43
0.0
 10
323.9074904984
 20
-101.2211382661
 10
324.6445328046
 20
-100.8512693928
 10
325.463570625
 20
-100.5442161897
 10
326.3486623199
 20
-100.3059550982
 10
327.2825805863
 20
-100.1411235995
 10
328.2471477674
 20
-100.0529299511
 10
329.2235896604
 20
-100.0430907421
 10
330.1929009343
 20
-100.1117974815
 10
331.1362150479
 20
-100.2577128708
 10
332.0351714649
 20
-100.4779968329
 10
332.8722730211
 20
-100.768361791
 10
333.6312264871
 20
-101.1231561215
 10
334.2972596969
 20
-101.5354741564
 10
334.8574090716
 20
-101.9972905942
 10
335.3007719408
 20
-102.499616703
 10
335.6187187507
 20
-103.0326752767
 10
335.8050610282
 20
-103.5860909365
 10
335.8561718328
 20
-104.1490920759
 10
335.7710563508
 20
-104.7107205184
 10
335.5513712584
 20
-105.260044805
 10
335.2013924759
 20
-105.7863729633
 10
334.7279319423
 20
-106.2794606145
 10
334.1402050282
 20
-106.7297103683
 10
333.4496511696
 20
-107.1283586255
 10
332.6697112118
 20
-107.467646151
 10
331.8155657989
 20
-107.7409690992
 10
330.9038398997
 20
-107.9430075499
 10
329.952279222
 20
-108.0698290542
 10
328.9794048117
 20
-108.1189651761
 10
328.0041525628
 20
-108.0894595366
 10
327.045504651
 20
-107.9818864296
 10
326.1221200673
 20
-107.7983396432
 10
325.2519714423
 20
-107.5423917067
 10
324.4519952293
 20
-107.2190243558
 10
323.7377620553
 20
-106.834531568
 10
323.1231736567
 20
-106.396397058
 10
322.6201922974
 20
-105.9131486158
 10
322.2386079375
 20
-105.3941921226
 10
321.9858476825
 20
-104.8496284762
 10
321.8668312234
 20
-104.2900569885
 10
321.88387508
 20
-103.7263690822
 10
322.0366475132
 20
-103.169536301
 10
322.3221749812
 20
-102.6303967617
 10
322.7349000167
 20
-102.1194442022
 10
323.2667893963
 20
-101.6466237328
 10
323.9074904984
 20
-101.2211382661
  0
LWPOLYLINE
  5
12E
330
1F
100
AcDbEntity
  8
0
  6
Continuous
 62
     7
370
    25
100
AcDbPolyline
 90
       39
 70
   128
 43
0.0
 10
325.3217040607
 20
-102.0375463779
 10
325.9518538897
 20
-101.7294423376
 10
326.6612550224
 20
-101.485416285
 10
327.4305568454
 20
-101.3121246147
 10
328.2387748103
 20
-101.2142942718
 10
329.0638628379
 20
-101.194593813
 10
329.8833146777
 20
-101.2535606154
 10
330.6747778195
 20
-101.3895862184
 10
331.4166632121
 20
-101.5989601981
 10
332.088734156
 20
-101.8759713782
 10
332.6726583077
 20
-102.2130636157
 10
333.1525077385
 20
-102.6010419133
 10
333.5151934069
 20
-103.0293232342
 10
333.7508221933
 20
-103.4862251806
 10
333.8529667586
 20
-103.9592846583
 10
333.8188408654
 20
-104.435597838
 10
333.649375379
 20
-104.9021721378
 10
333.3491928761
 20
-105.3462806271
 10
332.926481553
 20
-105.755809184
 10
332.3927718726
 20
-106.119586937
 10
331.7626220437
 20
-106.4276909774
 10
331.0532209109
 20
-106.6717170299
 10
330.2839190879
 20
-106.8450087002
 10
329.475701123
 20
-106.9428390431
 10
328.6506130954
 20
-106.962539502
 10
327.8311612557
 20
-106.9035726996
 10
327.0396981139
 20
-106.7675470966
 10
326.2978127212
 20
-106.5581731169
 10
325.6257417774
 20
-106.2811619368
 10
325.0418176257
 20
-105.9440696992
 10
324.5619681948
 20
-105.5560914017
 10
324.1992825264
 20
-105.1278100807
 10
323.96365374
 20
-104.6709081344
 10
323.8615091747
 20
-104.1978486566
 10
323.895635068
 20
-103.7215354769
 10
324.0651005544
 20
-103.2549611771
 10
324.3652830572
 20
-102.8108526878
 10
324.7879943803
 20
-102.4013241309
 10
325.3217040607
 20
-102.0375463779
  0
LWPOLYLINE
  5
12F
330
1F
100
AcDbEntity
  8
0
  6
Continuous
 62
     1
370
    25
100
AcDbPolyline
 90
       62
 70
   128
 43
0.0
 10
313.8566315149
 20
7.2943942933
 10
314.3049046806
 20
7.0244848176
 10
315.5372354141
 20
6.1748826679
 10
316.6965069423
 20
5.210177786
 10
317.7794881675
 20
4.1330589775
 10
318.7831606268
 20
2.9465283658
 10
319.704726905
 20
1.6538930245
 10
320.5416184317
 20
0.2587557601
 10
321.2915026399
 20
-1.2349949296
 10
321.952289468
 20
-2.8231956936
 10
322.5221371846
 20
-4.5014199314
 10
322.9994575218
 20
-6.264990131
 10
323.3829201022
 20
-8.1089909061
 10
323.6714561469
 20
-10.0282826957
 10
323.8642614542
 20
-12.0175160894
 10
323.9607986411
 20
-14.071146737
 10
323.9607986411
 20
-16.1834508014
 10
323.8642614542
 20
-18.3485409124
 10
323.6714561469
 20
-20.5603825755
 10
323.3829201022
 20
-22.8128109913
 10
322.9994575218
 20
-25.0995482379
 10
322.5221371846
 20
-27.4142207684
 10
321.952289468
 20
-29.7503771752
 10
321.2915026399
 20
-32.1015061715
 10
320.5416184317
 20
-34.461054739
 10
319.704726905
 20
-36.8224463928
 10
318.7831606268
 20
-39.1790995107
 10
317.7794881675
 20
-41.5244456778
 10
316.6965069423
 20
-43.8519479937
 10
315.5372354141
 20
-46.155119292
 10
314.3049046806
 20
-48.4275402211
 10
313.0029494685
 20
-50.6628771365
 10
311.6349985606
 20
-52.8548997531
 10
310.2048646813
 20
-54.9974985108
 10
308.7165338704
 20
-57.0847016026
 10
307.1741543726
 20
-59.1106916191
 10
305.5820250764
 20
-61.0698217627
 10
303.9445835316
 20
-62.9566315863
 10
302.2663935815
 20
-64.7658622126
 10
300.5521326424
 20
-66.4924709913
 10
298.8065786671
 20
-68.1316455541
 10
297.0345968277
 20
-69.6788172274
 10
295.2411259552
 20
-71.1296737663
 10
293.4311647747
 20
-72.4801713734
 10
291.6097579726
 20
-73.7265459697
 10
289.7819821363
 20
-74.8653236855
 10
287.9529316051
 20
-75.8933305433
 10
286.1277042706
 20
-76.8077013034
 10
284.3113873689
 20
-77.6058874506
 10
282.5090433009
 20
-78.2856642969
 10
280.7256955229
 20
-78.8451371823
 10
278.9663145449
 20
-79.2827467555
 10
277.2358040773
 20
-79.5972733203
 10
275.5389873632
 20
-79.7878402345
 10
273.880593735
 20
-79.8539163542
 10
272.2652454332
 20
-79.7953175131
 10
270.6974447233
 20
-79.612207037
 10
269.1815613471
 20
-79.3050952873
 10
267.7218203433
 20
-78.8748382399
 10
266.3222902721
 20
-78.322635098
 10
264.9868718747
 20
-77.6500249511
 10
264.9802639702
 20
-77.6463070947
  0
ARC
  5
130
330
1F
100
AcDbEntity
  8
0
  6
Continuous
 62
     1
370
    25
100
AcDbCircle
 10
243.1158703871
 20
-8.4458581682
 30
0.0
 40
82.48526464960055
100
AcDbArc
 50
321.187135145
 51
338.7198439326
  0
ARC
  5
131
330
1F
100
AcDbEntity
  8
0
  6
Continuous
 62
     1
370
    25
100
AcDbCircle
 10
254.7609290893
 20
-15.1630080145
 30
0.0
 40
69.95904223003706
100
AcDbArc
 50
316.6402480886
 51
342.9316931905
  0
LWPOLYLINE
  5
132
330
1F
100
AcDbEntity
  8
0
  6
Continuous
 62
     1
370
    25
100
AcDbPolyline
 90
       32
 70
   128
 43
0.0
 10
324.4457296889
 20
-19.2179011462
 10
324.5371748729
 20
-21.0264881982
 10
324.5371748729
 20
-22.956033562
 10
324.440908429
 20
-24.9379474831
 10
324.2486953286
 20
-26.9656462428
 10
323.9611740843
 20
-29.0323940298
 10
323.5792998128
 20
-31.1313253157
 10
323.1043410619
 20
-33.2554676618
 10
322.537875597
 20
-35.3977648811
 10
321.8817851593
 20
-37.5511004774
 10
321.1382492153
 20
-39.7083212865
 10
320.3097377165
 20
-41.8622612379
 10
319.3990028949
 20
-44.0057651595
 10
318.40907012
 20
-46.1317125471
 10
317.3432278489
 20
-48.233041217
 10
316.2050167024
 20
-50.3027707669
 10
314.9982177035
 20
-52.3340257632
 10
313.7268397171
 20
-54.3200585813
 10
312.395106133
 20
-56.2542718197
 10
311.0074408362
 20
-58.1302402166
 10
309.5684535114
 20
-59.9417319936
 10
308.0829243297
 20
-61.6827295573
 10
306.5557880696
 20
-63.3474494889
 10
304.9921177242
 20
-64.930361756
 10
303.3971076492
 20
-66.4262080834
 10
301.7760563076
 20
-67.83001942
 10
300.134348669
 20
-69.1371324457
 10
298.477438321
 20
-70.3432050625
 10
296.8108293532
 20
-71.4442308185
 10
295.140058073
 20
-72.4365522167
 10
293.4706746145
 20
-73.3168728654
 10
293.1151477348
 20
-73.48994141
  0
ENDSEC
  0
SECTION
  2
OBJECTS
  0
DICTIONARY
  5
C
330
0
100
AcDbDictionary
281
     1
  3
ACAD_GROUP
350
D
  3
ACAD_LAYOUT
350
1A
  3
ACAD_MLINESTYLE
350
17
  3
ACAD_PLOTSETTINGS
350
19
  3
ACAD_PLOTSTYLENAME
350
E
  3
ACAD_SCALELIST
350
47
  3
DWGPROPS
350
133
  0
DICTIONARY
  5
D
102
{ACAD_REACTORS
330
C
102
}
330
C
100
AcDbDictionary
281
     1
  0
DICTIONARY
  5
1A
102
{ACAD_REACTORS
330
C
102
}
330
C
100
AcDbDictionary
281
     1
  3
Layout1
350
1E
  3
Layout2
350
26
  3
Model
350
22
  0
DICTIONARY
  5
17
102
{ACAD_REACTORS
330
C
102
}
330
C
100
AcDbDictionary
281
     1
  3
Standard
350
18
  0
DICTIONARY
  5
19
102
{ACAD_REACTORS
330
C
102
}
330
C
100
AcDbDictionary
281
     1
  0
ACDBDICTIONARYWDFLT
  5
E
102
{ACAD_REACTORS
330
C
102
}
330
C
100
AcDbDictionary
281
     1
  3
Normal
350
F
100
AcDbDictionaryWithDefault
340
F
  0
DICTIONARY
  5
47
102
{ACAD_REACTORS
330
C
102
}
330
C
100
AcDbDictionary
281
     1
  3
A0
350
48
  3
A1
350
49
  3
A2
350
4A
  3
A3
350
4B
  3
A4
350
4C
  3
A5
350
4D
  3
A6
350
4E
  3
A7
350
4F
  3
A8
350
50
  3
A9
350
51
  3
B0
350
52
  3
B1
350
53
  3
B2
350
54
  3
B3
350
55
  3
B4
350
56
  3
B5
350
57
  3
B6
350
58
  3
B7
350
59
  3
B8
350
5A
  3
B9
350
5B
  3
C0
350
5C
  3
C1
350
5D
  3
C2
350
5E
  3
C3
350
5F
  3
C4
350
60
  3
C5
350
61
  3
C6
350
62
  3
C7
350
63
  3
C8
350
64
  3
C9
350
65
  3
D0
350
66
  3
D1
350
67
  3
D2
350
68
  0
XRECORD
  5
133
102
{ACAD_REACTORS
330
C
102
}
330
C
100
AcDbXrecord
280
     1
  1
DWGPROPS COOKIE
  2

  3

  4

  6

  7

  8
b.kav
  9

300
=
301
=
302
=
303
=
304
=
305
=
306
=
307
=
308
=
309
=
 40
0.0
 41
2460346.545771759
 42
2460346.545771944
  1

 90
        0
  0
LAYOUT
  5
1E
102
{ACAD_REACTORS
330
1A
102
}
330
1A
100
AcDbPlotSettings
  1

  2
none_device
  4

  6

 40
0.0
 41
0.0
 42
0.0
 43
0.0
 44
0.0
 45
0.0
 46
0.0
 47
0.0
 48
0.0
 49
0.0
140
0.0
141
0.0
142
1.0
143
1.0
 70
   688
 72
     1
 73
     0
 74
     5
  7

 75
    16
147
1.0
148
0.0
149
0.0
100
AcDbLayout
  1
Layout1
 70
     1
 71
     1
 10
0.0
 20
0.0
 11
420.0
 21
297.0
 12
0.0
 22
0.0
 32
0.0
 14
1.0000000000E+20
 24
1.0000000000E+20
 34
1.0000000000E+20
 15
-1.0000000000E+20
 25
-1.0000000000E+20
 35
-1.0000000000E+20
146
0.0
 13
0.0
 23
0.0
 33
0.0
 16
1.0
 26
0.0
 36
0.0
 17
0.0
 27
1.0
 37
0.0
 76
     0
330
1B
  0
LAYOUT
  5
26
102
{ACAD_REACTORS
330
1A
102
}
330
1A
100
AcDbPlotSettings
  1

  2
none_device
  4

  6

 40
0.0
 41
0.0
 42
0.0
 43
0.0
 44
0.0
 45
0.0
 46
0.0
 47
0.0
 48
0.0
 49
0.0
140
0.0
141
0.0
142
1.0
143
1.0
 70
   688
 72
     1
 73
     0
 74
     5
  7

 75
    16
147
1.0
148
0.0
149
0.0
100
AcDbLayout
  1
Layout2
 70
     1
 71
     2
 10
0.0
 20
0.0
 11
0.0
 21
0.0
 12
0.0
 22
0.0
 32
0.0
 14
0.0
 24
0.0
 34
0.0
 15
0.0
 25
0.0
 35
0.0
146
0.0
 13
0.0
 23
0.0
 33
0.0
 16
1.0
 26
0.0
 36
0.0
 17
0.0
 27
1.0
 37
0.0
 76
     0
330
23
  0
LAYOUT
  5
22
102
{ACAD_REACTORS
330
1A
102
}
330
1A
100
AcDbPlotSettings
  1

  2
none_device
  4
Letter_(8.50_x_11.00_Inches)
  6

 40
6.35
 41
6.35
 42
6.35000508
 43
6.35000508
 44
215.9
 45
279.4
 46
0.0
 47
0.0
 48
0.0
 49
0.0
140
0.0
141
0.0
142
1.0
143
1.0
 70
  1712
 72
     1
 73
     0
 74
     0
  7

 75
     0
147
1.0
148
0.0
149
0.0
100
AcDbLayout
  1
Model
 70
     1
 71
     0
 10
0.0
 20
0.0
 11
279.4
 21
215.9
 12
0.0
 22
0.0
 32
0.0
 14
0.0
 24
0.0
 34
0.0
 15
279.4
 25
215.9
 35
0.0
146
0.0
 13
0.0
 23
0.0
 33
0.0
 16
1.0
 26
0.0
 36
0.0
 17
0.0
 27
1.0
 37
0.0
 76
     0
330
1F
331
29
  0
MLINESTYLE
  5
18
102
{ACAD_REACTORS
330
17
102
}
330
17
100
AcDbMlineStyle
  2
Standard
 70
     0
  3

 62
   256
 51
90.0
 52
90.0
 71
     2
 49
0.5
 62
   256
  6
BYLAYER
 49
-0.5
 62
   256
  6
BYLAYER
  0
ACDBPLACEHOLDER
  5
F
102
{ACAD_REACTORS
330
E
102
}
330
E
  0
SCALE
  5
48
102
{ACAD_REACTORS
330
47
102
}
330
47
100
AcDbScale
 70
     0
300
1:1
140
1.0
141
1.0
290
     1
  0
SCALE
  5
49
102
{ACAD_REACTORS
330
47
102
}
330
47
100
AcDbScale
 70
     0
300
1:2
140
1.0
141
2.0
290
     0
  0
SCALE
  5
4A
102
{ACAD_REACTORS
330
47
102
}
330
47
100
AcDbScale
 70
     0
300
1:4
140
1.0
141
4.0
290
     0
  0
SCALE
  5
4B
102
{ACAD_REACTORS
330
47
102
}
330
47
100
AcDbScale
 70
     0
300
1:5
140
1.0
141
5.0
290
     0
  0
SCALE
  5
4C
102
{ACAD_REACTORS
330
47
102
}
330
47
100
AcDbScale
 70
     0
300
1:8
140
1.0
141
8.0
290
     0
  0
SCALE
  5
4D
102
{ACAD_REACTORS
330
47
102
}
330
47
100
AcDbScale
 70
     0
300
1:10
140
1.0
141
10.0
290
     0
  0
SCALE
  5
4E
102
{ACAD_REACTORS
330
47
102
}
330
47
100
AcDbScale
 70
     0
300
1:16
140
1.0
141
16.0
290
     0
  0
SCALE
  5
4F
102
{ACAD_REACTORS
330
47
102
}
330
47
100
AcDbScale
 70
     0
300
1:20
140
1.0
141
20.0
290
     0
  0
SCALE
  5
50
102
{ACAD_REACTORS
330
47
102
}
330
47
100
AcDbScale
 70
     0
300
1:30
140
1.0
141
30.0
290
     0
  0
SCALE
  5
51
102
{ACAD_REACTORS
330
47
102
}
330
47
100
AcDbScale
 70
     0
300
1:40
140
1.0
141
40.0
290
     0
  0
SCALE
  5
52
102
{ACAD_REACTORS
330
47
102
}
330
47
100
AcDbScale
 70
     0
300
1:50
140
1.0
141
50.0
290
     0
  0
SCALE
  5
53
102
{ACAD_REACTORS
330
47
102
}
330
47
100
AcDbScale
 70
     0
300
1:100
140
1.0
141
100.0
290
     0
  0
SCALE
  5
54
102
{ACAD_REACTORS
330
47
102
}
330
47
100
AcDbScale
 70
     0
300
2:1
140
2.0
141
1.0
290
     0
  0
SCALE
  5
55
102
{ACAD_REACTORS
330
47
102
}
330
47
100
AcDbScale
 70
     0
300
4:1
140
4.0
141
1.0
290
     0
  0
SCALE
  5
56
102
{ACAD_REACTORS
330
47
102
}
330
47
100
AcDbScale
 70
     0
300
8:1
140
8.0
141
1.0
290
     0
  0
SCALE
  5
57
102
{ACAD_REACTORS
330
47
102
}
330
47
100
AcDbScale
 70
     0
300
10:1
140
10.0
141
1.0
290
     0
  0
SCALE
  5
58
102
{ACAD_REACTORS
330
47
102
}
330
47
100
AcDbScale
 70
     0
300
100:1
140
100.0
141
1.0
290
     0
  0
SCALE
  5
59
102
{ACAD_REACTORS
330
47
102
}
330
47
100
AcDbScale
 70
     0
300
1/128" = 1'-0"
140
0.0078125
141
12.0
290
     0
  0
SCALE
  5
5A
102
{ACAD_REACTORS
330
47
102
}
330
47
100
AcDbScale
 70
     0
300
1/64" = 1'-0"
140
0.015625
141
12.0
290
     0
  0
SCALE
  5
5B
102
{ACAD_REACTORS
330
47
102
}
330
47
100
AcDbScale
 70
     0
300
1/32" = 1'-0"
140
0.03125
141
12.0
290
     0
  0
SCALE
  5
5C
102
{ACAD_REACTORS
330
47
102
}
330
47
100
AcDbScale
 70
     0
300
1/16" = 1'-0"
140
0.0625
141
12.0
290
     0
  0
SCALE
  5
5D
102
{ACAD_REACTORS
330
47
102
}
330
47
100
AcDbScale
 70
     0
300
3/32" = 1'-0"
140
0.09375
141
12.0
290
     0
  0
SCALE
  5
5E
102
{ACAD_REACTORS
330
47
102
}
330
47
100
AcDbScale
 70
     0
300
1/8" = 1'-0"
140
0.125
141
12.0
290
     0
  0
SCALE
  5
5F
102
{ACAD_REACTORS
330
47
102
}
330
47
100
AcDbScale
 70
     0
300
3/16" = 1'-0"
140
0.1875
141
12.0
290
     0
  0
SCALE
  5
60
102
{ACAD_REACTORS
330
47
102
}
330
47
100
AcDbScale
 70
     0
300
1/4" = 1'-0"
140
0.25
141
12.0
290
     0
  0
SCALE
  5
61
102
{ACAD_REACTORS
330
47
102
}
330
47
100
AcDbScale
 70
     0
300
3/8" = 1'-0"
140
0.375
141
12.0
290
     0
  0
SCALE
  5
62
102
{ACAD_REACTORS
330
47
102
}
330
47
100
AcDbScale
 70
     0
300
1/2" = 1'-0"
140
0.5
141
12.0
290
     0
  0
SCALE
  5
63
102
{ACAD_REACTORS
330
47
102
}
330
47
100
AcDbScale
 70
     0
300
3/4" = 1'-0"
140
0.75
141
12.0
290
     0
  0
SCALE
  5
64
102
{ACAD_REACTORS
330
47
102
}
330
47
100
AcDbScale
 70
     0
300
1" = 1'-0"
140
1.0
141
12.0
290
     0
  0
SCALE
  5
65
102
{ACAD_REACTORS
330
47
102
}
330
47
100
AcDbScale
 70
     0
300
1-1/2" = 1'-0"
140
1.5
141
12.0
290
     0
  0
SCALE
  5
66
102
{ACAD_REACTORS
330
47
102
}
330
47
100
AcDbScale
 70
     0
300
3" = 1'-0"
140
3.0
141
12.0
290
     0
  0
SCALE
  5
67
102
{ACAD_REACTORS
330
47
102
}
330
47
100
AcDbScale
 70
     0
300
6" = 1'-0"
140
6.0
141
12.0
290
     0
  0
SCALE
  5
68
102
{ACAD_REACTORS
330
47
102
}
330
47
100
AcDbScale
 70
     0
300
1'-0" = 1'-0"
140
12.0
141
12.0
290
     0
  0
ENDSEC
  0
EOF
